my aadat recording!!!

Discussion in 'Hindi Guitar Tabs - Submit or Request' started by raviction, Dec 15, 2006.

  1. raviction

    raviction New Member

    hey guys....chk out my aadat...have recorded it rectly...m awaiting ur comments....plzzz plzzzzzzzz plzzzzzzz do gimmme some feedback....thanx ..... :)

    http://fretosphere.dmusic.com/
     
    faiqrock likes this.
  2. nazr

    nazr angel is my genital..

    Great man. Even though i hate this song i managed to make myself listen to it.Nice guitaring as well.Definately a much improved effort than the robaroo song.Nice voice by the way.
     
  3. faiqrock

    faiqrock XaiQ

    :p: again addat :D
    any ways Nice recording... Reps
     
  4. fisherman

    fisherman New Member

    oh man!!! you're too good...
    i used to play aadat with Am G F and E....but they sound nothing in front of you're recording..
    plzzz tell me the chords.

    one more thing..wat did u use for recording..i mean u went to a studio or something???
    GOOD WORK once again!!!!!!!!!!!!!!!!!!!
     
  5. raviction

    raviction New Member

    heyy thnxx ppl ...din expect this kinda response...m delighted :) ....chrds are posted onlinne fisherman...its thr in the forums search....i din play lead and all...but in the forums chrds are given with lead...it ll be good if u see thr....ull ve perfect idea abt it......and i din record in any studio...lol...i used a software called adobe audition ...its the best !!!! B-)
     
  6. sakura2006

    sakura2006 New Member

    hey, i liked it very much...you played well...
    can you post the link for the forum where you find its chords...
     
  7. raviction

    raviction New Member

    the chords are c#m Bm A and Bm...these chords repeat fer the whole sng....play and enjoy B-)
     
  8. Imee

    Imee New Member

    hey man nice work on guitaring as well as on vocals but need more to improve vocals while recording such songs...
    anyway i m new to guitar n dis forum i listened ur aadat really nice

    will you help me about strumming aadat
    i don't know the strumming pattern of aadat & wo lamhe plzzzzzzzzzzzzzzz plzzzzzzzzzzz send me strumming pattern of aadat & wo lamhe, i'll be thankful to you
    mail: [SNIP]
     
  9. raviction

    raviction New Member

    welll if ur new to guitaring ...it ll be tough for u to strum ...coz its sortta complicated fer beginners.....u shuld knww hw to do muting effect and alll....once u knww to barrre the chords and cn do the muting effect ...thnn u cn play ny sng B-)....and nywayss thankss for ur comments on my aadat...will try improving on vocals :)
     
  10. Imee

    Imee New Member

    thnx man for ur advice, really learn guitar is hard but then enjoyable
    yaar i have no teacher in ma city for guitar, i used to do dhuka i used to get chords from net then fighting with guitar for strumin....lol

    can you suggest any book for learning guitar properly i want to learn n dont wanna make fun of mine infront of people
     
  11. Imee

    Imee New Member

    hey man phir bhi kuch help karte strumming k baare mein about aadat
    like D U D plzzzz i wanna play this song yaar
    ur help will lead me to fulfil ma dream of playing aadat for that i got guitar
    waiting for ur reply plzzzzzz yaar try do make me clear about this
    kuch to bata ary kuch to bata.........:)
     
  12. kevin_s

    kevin_s New Member

    i am learning guitar only to play aadat....plz help me wid the strumming...is muting required?.....
     
  13. drsherry

    drsherry Guitarist [SEER]

    hey

    the song addat chords..the correct one...exact rather are

    aaa aaaaa...
    e|------------------------------------|
    B|-----------4-----4-----4-----4------|
    G|-------6-----6-----6-----6-----6----|
    D|-----6---6-----6-----6-----6-----6--|
    A|--\4--------------------------------|
    E|------------------------------------|

    aaaaaaaaaa
    e|------------------------------------|
    B|-----------4-----4-----4-----4------|
    G|-------6-----6-----6-----6-----6----|
    D|-----6---6-----6-----6-----6-----6--|
    A|---4--------------------------------|
    E|------------------------------------|


    e|------------------------------------|
    B|-----------5-----5-----5-----5------|
    G|-------6-----6-----6-----6-----6----|
    D|-----6---6-----6-----6-----6-----6--|
    A|---4--------------------------------|
    E|------------------------------------|

    na jaanay.....
    e|------------------------------------|
    B|-----------4-----4-----4-----4------|
    G|------6------6-----6-----6-----6----|
    D|---------------6-----6-----6-----6--|
    A|---4--------------------------------|
    E|------------------------------------|

    umeedain...
    e|------------------------------------|
    B|-----------4-----4-----4-----4------|
    G|-------6-----6-----6-----6-----6----|
    D|-----6---6-----6-----6-----6-----6--|
    A|---4--------------------------------|
    E|------------------------------------|


    e|------------------------------------|
    B|-----------5-----5-----5-----5------|
    G|-------6-----6-----6-----6-----6----|
    D|---------------6-----6-----6-----6--|
    A|---4--------------------------------|
    E|------------------------------------|

    mujhe...
    e|------------------------------------|
    B|-----------4-----4-----4-----4------|
    G|-------6-----6-----6-----6-----6----|
    D|---------6-----6-----6-----6-----6--|
    A|---4--------------------------------|
    E|------------------------------------|

    kyun...
    e|------------------------------------|
    B|-----------4-----4-----4-----4------|
    G|-------6-----6-----6-----6-----6----|
    D|---------6-----6-----6-----6-----6--|
    A|---4--------------------------------|
    E|------------------------------------|

    na jaanay say
    e|----------------------------------------------|
    B|-----------5-----5-----5-----5-----------5----|
    G|-------6-----6-----6-----6-----6---------6----|
    D|---------5-----6-----6-----6-----6-------6----|
    A|---4-------------------------------------4----|
    E|----------------------------------------------|


    then the strummin comes:
    guitar 1
    e|--444-444-4--444-444-4---|
    B|--444-555-5--444-555-5--|
    G|--666-666-6--666-666-6--|
    D|--666-666-6--666-666-6--|
    A|--444-444-4--444-444-4--|
    E|--444-444-4--444-444-4---|

    e|------------------------|
    B|--444-555-5--444-555-5--|
    G|--666-666-6--666-666-6--|
    D|--666-666-6--666-666-6--|
    A|------------------------|
    E|------------------------|


    while this plays a second time...a second guitar plays this:

    guitar 2
    e|--------0---------------0---------------0---------0--|
    B|--2-0-2----2-0----2-0-2----2-0------0---------0---0--|
    G|----------------------------------2---2-----2-----2--|
    D|-----------------------------------------------------|
    A|-----------------------------------------------------|
    E|-----------------------------------------------------|


    guitar 1
    duur jithna...mujhse...... teray meinnnnnn
    e|-----------------------------------------------------|
    B|-----555-555-5--444-444-4--222-222-2--444-444-4--|
    G|-----666-666-6--444-444-4--222-222-2--444-444-4--|
    D|-----666-666-6--444-444-4--222-222-2--444-444-4--|
    A|-----444-444-4--222-222-2--000-000-0--222-222-2--|
    E|-------------------------------------------------|

    ab tho aadat......ko..... jeenay meinnnnnnn
    e|-----------------------------------------------------|
    B|-----555-555-5--444-444-4--222-222-2--444-444-4--|
    G|-----666-666-6--444-444-4--222-222-2--444-444-4--|
    D|-----666-666-6--444-444-4--222-222-2--444-444-4--|
    A|-----444-444-4--222-222-2--000-000-0--222-222-2--|
    E|-------------------------------------------------|

    zindagi.... shikva.... nahin haiii.....
    e|-----------------------------------------------------|
    B|-----555-555-5--444-444-4--222-222-2--444-444-4--|
    G|-----666-666-6--444-444-4--222-222-2--444-444-4--|
    D|-----666-666-6--444-444-4--222-222-2--444-444-4--|
    A|-----444-444-4--222-222-2--000-000-0--222-222-2--|
    E|-------------------------------------------------|

    ab tho zinda.... neelay..aasmaan meinnnnn
    e|-----------------------------------------------------|
    B|-----555-555-5--444-444-4--222-222-2--444-444-4--|
    G|-----666-666-6--444-444-4--222-222-2--444-444-4--|
    D|-----666-666-6--444-444-4--222-222-2--444-444-4--|
    A|-----444-444-4--222-222-2--000-000-0--222-222-2--|
    E|-------------------------------------------------|


    with guitar 1 continuing the same pattern...
    guitar 2 plays this
    e|----------4----7p4--------4----7p4---------2------4-----5------|
    B|------5---------------5----------------2--------2-----2-----2--|
    G|----6---6---6-------6---6---6--------2---2----2-----2-----2----|
    D|---------------------------------------------------------------|
    A|---------------------------------------------------------------|
    E|---------------------------------------------------------------|

    e|----------4----7p4--------4----7p4------------2--|
    B|------5---------------5----------------2------2--|
    G|----6---6---6-------6---6---6--------2--------2--|
    D|-------------------------------------------------|
    A|-------------------------------------------------|
    E|-------------------------------------------------|


    guitar 1
    chahat aisi... teri..... ja-ay..........
    e|-----------------------------------------------------|
    B|-----555-555-5--444-444-4--222-222-2--444-444-4--|
    G|-----666-666-6--444-444-4--222-222-2--444-444-4--|
    D|-----666-666-6--444-444-4--222-222-2--444-444-4--|
    A|-----444-444-4--222-222-2--000-000-0--222-222-2--|
    E|-------------------------------------------------|

    aahat aisi... teri.... sathaa-ay ..........
    e|-----------------------------------------------------|
    B|-----555-555-5--444-444-4--222-222-2--444-444-4--|
    G|-----666-666-6--444-444-4--222-222-2--444-444-4--|
    D|-----666-666-6--444-444-4--222-222-2--444-444-4--|
    A|-----444-444-4--222-222-2--000-000-0--222-222-2--|
    E|-------------------------------------------------|

    ... gehri .....ithnee..duub ja-ay.........
    e|-----------------------------------------------------|
    B|-----555-555-5--444-444-4--222-222-2--444-444-4--|
    G|-----666-666-6--444-444-4--222-222-2--444-444-4--|
    D|-----666-666-6--444-444-4--222-222-2--444-444-4--|
    A|-----444-444-4--222-222-2--000-000-0--222-222-2--|
    E|-------------------------------------------------|

    aur aankhon....ghum....... ja-ainnn....
    e|-----------------------------------------------------|
    B|-----555-555-5--444-444-4--222-222-2--444-444-4--|
    G|-----666-666-6--444-444-4--222-222-2--444-444-4--|
    D|-----666-666-6--444-444-4--222-222-2--444-444-4--|
    A|-----444-444-4--222-222-2--000-000-0--222-222-2--|
    E|-------------------------------------------------|

    hey hey heyyyyyy hooooooo oooooooooooo
    e|-----------------------------------------------------|
    B|-----555-555-5--444-444-4--222-222-2--444-444-4--|
    G|-----666-666-6--444-444-4--222-222-2--444-444-4--|
    D|-----666-666-6--444-444-4--222-222-2--444-444-4--|
    A|-----444-444-4--222-222-2--000-000-0--222-222-2--|
    E|-------------------------------------------------|
     
  14. drsherry

    drsherry Guitarist [SEER]

    continued

    guitar 1
    e|--4-5-4-44-44----------------------------------------|
    B|--------------7-5-4-44-44--4-5-4-2-4s5----5s7-5---4--|
    G|-----------------------------------------------------|
    D|-----------------------------------------------------|
    A|-----------------------------------------------------|
    E|-----------------------------------------------------|

    e|--4-5-4-44-4-7-9-7-9s11-9-77-7-5s7---5---4s2---------|
    B|-----------------------------------------------------|
    G|-----------------------------------------------------|
    D|-----------------------------------------------------|
    A|-----------------------------------------------------|
    E|-----------------------------------------------------|

    during the solo....
    guitar 3 plays this
    e|-----------4--------2--------0--------2--|
    B|-----------5--------4--------2--------4--|
    G|---------6--------4--------2--------4----|
    D|-------6--------4--------2--------4------|
    A|-----4--------2--------0--------2--------|
    E|-----------------------------------------|

    n continues to play it after the solo is over:
    guitar 3
    ab tho aadat si... aisay... meinnnn
    e|-----------4--------2--------0---2--|
    B|-----------5--------4--------2---4--|
    G|---------6--------4--------2-----4--|
    D|-------6--------4--------2-------4--|
    A|-----4--------2--------0---------2--|
    E|------------------------------------|


    then...guitar 1 plays this along with the alaaps:
    e|-----xxx-xxx-x--xxx-xxx-x--xxx-xxx-x--xxx-xxx-x--|
    B|-----xxx-xxx-x--xxx-xxx-x--xxx-xxx-x--xxx-xxx-x--|
    G|-----666-666-6--444-444-4--222-222-2--444-444-4--|
    D|-----666-666-6--444-444-4--222-222-2--444-444-4--|
    A|-----444-444-4--222-222-2--000-000-0--222-222-2--|
    E|-----xxx-xxx-x--xxx-xxx-x--xxx-xxx-x--xxx-xxx-x--|
    along with guitar 2 playin this:
    e|-----77-7s9-99--77-7s9-99--77-7s5-55--55-5s77-7--|
    B|-----55-5s7-77--55-5s7-77--55-5s3-33--33-3s55-5--|
    G|-----66-6s8-88--66-6s8-88--66-6s4-44--44-4s66-6--|
    D|-------------------------------------------------|
    A|-------------------------------------------------|
    E|-------------------------------------------------|


    guitar 4
    sabhee raatein hain.......... batein hainnnn
    e|---------xxx-xxx-x--xxx-xxx-x--xxx-xxx-x--xxx-xxx-x--|
    B|---------xxx-xxx-x--xxx-xxx-x--xxx-xxx-x--xxx-xxx-x--|
    G|---------666-666-6--666-666-6--222-222-2--444-444-4--|
    D|---------666-666-6--666-666-6--222-222-2--444-444-4--|
    A|---------444-444-4--444-444-4--000-000-0--222-222-2--|
    E|---------xxx-xxx-x--xxx-xxx-x--xxx-xxx-x--xxx-xxx-x--|

    bhuladon unhein............. unheinnnn
    e|---------xxx-xxx-x--xxx-xxx-x--xxx-xxx-x--xxx-xxx-x--|
    B|---------xxx-xxx-x--xxx-xxx-x--xxx-xxx-x--xxx-xxx-x--|
    G|---------666-666-6--666-666-6--222-222-2--444-444-4--|
    D|---------666-666-6--666-666-6--222-222-2--444-444-4--|
    A|---------444-444-4--444-444-4--000-000-0--222-222-2--|
    E|---------xxx-xxx-x--xxx-xxx-x--xxx-xxx-x--xxx-xxx-x--|

    alaapps
    guitar 4
    e|-----xxx-xxx-x--xxx-xxx-x--xxx-xxx-x--xxx-xxx-x--|
    B|-----xxx-xxx-x--xxx-xxx-x--xxx-xxx-x--xxx-xxx-x--|
    G|-----666-666-6--444-444-4--222-222-2--444-444-4--|
    D|-----666-666-6--444-444-4--222-222-2--444-444-4--|
    A|-----444-444-4--222-222-2--000-000-0--222-222-2--|
    E|-----xxx-xxx-x--xxx-xxx-x--xxx-xxx-x--xxx-xxx-x--|
    guitar 1
    e|-----444-444-4--222-222-2--000-000-0--222-222-2--|
    B|-----555-555-5--444-444-4--222-222-2--444-444-4--|
    G|-----666-666-6--444-444-4--222-222-2--444-444-4--|
    D|-----666-666-6--444-444-4--222-222-2--444-444-4--|
    A|-----444-444-4--222-222-2--000-000-0--222-222-2--|
    E|-------------------------------------------------|

    alaapps
    guitar 4
    e|-----xxx-xxx-x--xxx-xxx-x--xxx-xxx-x--xxx-xxx-x--|
    B|-----xxx-xxx-x--xxx-xxx-x--xxx-xxx-x--xxx-xxx-x--|
    G|-----666-666-6--444-444-4--222-222-2--444-444-4--|
    D|-----666-666-6--444-444-4--222-222-2--444-444-4--|
    A|-----444-444-4--222-222-2--000-000-0--222-222-2--|
    E|-----xxx-xxx-x--xxx-xxx-x--xxx-xxx-x--xxx-xxx-x--|
    guitar 1
    e|-----444-444-4--222-222-2--000-000-0--222-222-2--|
    B|-----555-555-5--444-444-4--222-222-2--444-444-4--|
    G|-----666-666-6--444-444-4--222-222-2--444-444-4--|
    D|-----666-666-6--444-444-4--222-222-2--444-444-4--|
    A|-----444-444-4--222-222-2--000-000-0--222-222-2--|
    E|-------------------------------------------------|


    guitar 1 ab tho aadat si hai mujh ko...
    e|-----------4--------2--------0--------2--|
    B|-----------5--------4--------2--------4--|
    G|---------6--------4--------2--------4----|
    D|-------6--------4--------2--------4------|
    A|-----4--------2--------0--------2--------|
    E|-----------------------------------------|




    ALTERNATE:::: for the part sabhi ratein hain sabhi batein hain...u can shift up and step back to add more bass with an acoustic guitar

    U can count me one these chords...I play them live in almost ever 2nd of our concert jam or gig and many times in our college...
     
  15. drsherry

    drsherry Guitarist [SEER]

    comments on ur ADDAT

    hmmm still downloading 88%

    ...
    ...
    91%
    ...
    ...
    ...
    98%
    ...

    DONE..lemme listen =)

    Well...why dont u try with the starting appregio and the aalaps at the start..it gives a whole strength to the song

    Its a good try...welldone boy...and u know this has also given me an idea to record my verison of addat as well...heh...surely will do that

    NICE WORK boi
     
  16. raviction

    raviction New Member

    ur TABS ARE 99.9999% correct mannn...amazing gr8 wrk
     
  17. raviction

    raviction New Member

    oh thnxxx a lottt mannnn......the tabs u gave me...i guesss its very very very very near to perfection gr8 wrk.....and lll try to put my best effort to record this sng again ...thnxxx anyways in giving me the feedback B-)
     
  18. anshammer

    anshammer MR. - 2 - MINZ

    areeyy..!!

    areyyy...waah....yaaar..!!..
    saabaassh.... everything is gud..... but u takin wrong murkhians...n u changed da whole song afta antara.....n da endin ...
    lisn 2 da song.... again...!!
    sorrie..!! :)

    n keep it goin....!!

    rocckk.on..!! it waz gud...!!
     
  19. drsherry

    drsherry Guitarist [SEER]

    welcome boi

    ur welcome boi...

    well u can try recording it when u like. and did i tell u that u sing pretty well..
    i couldnt record my version..just the busyschedules..mayb this weekend..if u wanna listen then mail me here ok
    cya
     
  20. raviction

    raviction New Member

    oh thnxxxxxx a lott...din expect soo many compliments ...i always have a feeeling tht my voice aint good ....yea wud sure wanna listen to ur version of aadat...jus put it online ....and do send me the link out here
     

Share This Page