moonflower [intro] - santana

Discussion in 'English Guitar Tabs - Submit or Request' started by zing, Jan 7, 2006.

  1. zing

    zing Machine Head

    my alltime favrite melody

    Code:
    moonflower - santana
    
    tabs copyleft (L) 2006 zing 
    
    r: let ring
    hb: half tone bend
    /: slide up
    v: vibrato
    
    
    intro:
    
    E|-------------12---10-------------|---12---10---------------------|
    B|--------12-------------13---12---|--------------13---12hb---10---|
    G|---9-----------------------------|-------------------------------|
    D|---=-----------------------------|-------------------------------|
    A|---------------------------------|-------------------------------|
    E|---------------------------------|-------------------------------|
    
    
    E|----------------------------------|--------------10--------------12---|
    B|---------------10-------------12--|---12---13----------13---12--------|
    G|---9/11---12--------12---11-------|-----------------------------------|
    D|----------------------------------|-----------------------------------|
    A|----------------------------------|-----------------------------------|
    E|----------------------------------|-----------------------------------|
    
    
    E|--------------------------------------------------------------------------------------------------|
    B|---10---12---12h13---12---10---10h12--------10---10h12---10--------10------------10---------------|
    G|---------------------------------------12---------------------12-------11---12--------12---8---9--|
    D|--------------------------------------------------------------------------------------------------|
    A|--------------------------------------------------------------------------------------------------|
    E|--------------------------------------------------------------------------------------------------|
    
    
    
    
    E|-------------12---10-------------|---12---10---------------------|
    B|--------12-------------13---12---|--------------13---12hb---10---|
    G|---9-----------------------------|-------------------------------|
    D|---=-----------------------------|-------------------------------|
    A|---------------------------------|-------------------------------|
    E|---------------------------------|-------------------------------|
    
    
    E|----------------------------------|--------------10-------------12---|
    B|---------------10-------------12--|---12---13---------13---12--------|
    G|---9/11---12--------12---11-------|----------------------------------|
    D|----------------------------------|----------------------------------|
    A|----------------------------------|----------------------------------|
    E|----------------------------------|----------------------------------|
    
    
    E|-----------------------------------------------------------------------------------------------------|
    B|---10---12---12h13---12---10---10h12--------10---10h12---10h12--------10------------10---------------|
    G|---------------------------------------12------------------------12-------11---12--------12---8---9--|
    D|-----------------------------------------------------------------------------------------------------|
    A|-----------------------------------------------------------------------------------------------------|
    E|-----------------------------------------------------------------------------------------------------|
    
    
    E|-------------10---12r---15---14---12---14---10---10--------10h12---10---------------|
    B|---12---13--------------------------------------------12----------------12hb---10---|
    G|------------------------------------------------------------------------------------|
    D|------------------------------------------------------------------------------------|
    A|------------------------------------------------------------------------------------|
    E|------------------------------------------------------------------------------------|
    
    
    E|------------------------------------|
    B|-------------10---12---12h 13---12---|
    G|---11---12--------------------------|
    D|------------------------------------|
    A|------------------------------------|
    E|------------------------------------|
    
    
    E|-------------10---12r---17---15---14---15---17---14v---10---10--------10h12---10h12---10------------------|
    B|---12---13-------------------------------------------------------12------------------------10-------------|
    G|------------------------------------------------------------------------------------------------12---11---|
    D|----------------------------------------------------------------------------------------------------------|
    A|---------------------------------------------------------------------------------------------------------=|
    E|----------------------------------------------------------------------------------------------------------|
    
    
    E|-------------------------------|
    B|-------------10----------------|
    G|---11---12--------12---8---9---|
    D|-------------------------------|
    A|-------------------------------|
    E|-------------------------------|
    
    
    
    in case u hadnt heard this herez my version tho its nowhere near the original :nw:
    lo-fi URL: http://www.soundclick.com/util/getplayer.m3u?id=3314827&q=lo
    hi-fi URL: http://www.soundclick.com/util/getplayer.m3u?id=3314827&q=hi
     

Share This Page