mile sur mera tumhara

Discussion in 'Hindi Guitar Tabs - Submit or Request' started by gnr311982, Oct 4, 2004.

  1. gnr311982

    gnr311982 New Member

    ppl i needed the tabs ( and if possible the song) of " mile sur mera tumhara"

    would be highly obliged if anyone could help.

    thank you
     
  2. urmilus

    urmilus New Member

    thats wonderful piece of indian music. i also love that. its been a long time hearing that. if u tell me how to find that song i might tab that 4 u.
     
  3. gnr311982

    gnr311982 New Member

    hey thanks for replying.
    searched a lot on the net, but am unable to get the original version.
    instead found this version ( done by a group of MIT students ).
    hope it helps.
    if any of u has got the original version (especially the video) please mail me.
    thanks a lot
     
  4. gnr311982

    gnr311982 New Member

  5. gnr311982

    gnr311982 New Member

    req: mile sur mera tumhara

    hey guys could ne one of u please tab ( or chord mile sur mera tumhara )
    would be grateful
    thanks
     
  6. gnr311982

    gnr311982 New Member

    hey guys is no one able to tab the song???

    please fellas :eek:
     
  7. DesiPride143

    DesiPride143 BEHAVE!

    okay here it goes, just a try, tell me how it was

    e --6-6-6-5-3-1-5-5-5-------
    B----------------------------
    G----------------------------
    D----------------------------
    A----------------------------
    E----------------------------

    mile sur mera tumharaa

    e -5-/-10--10-10-5-5-3-1-1--
    B---------------------------3-
    G----------------------------
    D----------------------------
    A----------------------------
    E-----------------------------
    to sur bane hamara

    e -1-1-6-6-10-10-10----------
    B----------------------------
    G----------------------------
    D----------------------------
    A----------------------------
    E-----------------------------
    sur ki nadiyaan

    e -8-8-10-10-8-6-------------
    B----------------------------
    G----------------------------
    D----------------------------
    A----------------------------
    E-----------------------------
    har disha se

    e -5-/6-6-5-3-------3-----
    B--------------6--5---3----
    G----------------------------
    D----------------------------
    A----------------------------
    E-----------------------------
    bah ke saagar mein, mile

    e -1-1-6-6-10-10----8-8-10-10-8-8-6-5-
    B----------------------------
    G----------------------------
    D----------------------------
    A----------------------------
    E-----------------------------
    baadalo ka, rup le kar

    e -5-/-6-5----3-3----3-------
    B------------------6---3------
    G----------------------------
    D----------------------------
    A----------------------------
    E-----------------------------
    barse halke halke

    e -5/6-6-6-6-5-3-1-5-5-5-------
    B----------------------------
    G----------------------------
    D----------------------------
    A----------------------------
    E----------------------------
    mile sur mera tumharaa

    e -5-/-10--10-10-5-5-3-1-1--
    B---------------------------3-
    G----------------------------
    D----------------------------
    A----------------------------
    E-----------------------------
    to sur bane hamara

    e--5-6-5-3-1-1-5-5-5-------
    mile sur mera tumhara

    that's it for now, i'll tab the rest later, and corrections are welcomed.

    aziz
     
  8. gnr311982

    gnr311982 New Member

    hey aziz thanks a lot for that. appreciate it.
     

Share This Page