Mazin:Teri yaad by jal

Discussion in 'Pakistani Guitar Tabs - Submit or Request' started by entityp4ever, Feb 13, 2005.

  1. entityp4ever

    entityp4ever New Member

    Hey! This is my own work, i wasnt able to find one that actually sounded like the song.. In this tab i tabbed out the flute part too at the beginning
    Enjoy..and :rockon:

    0--3--5--7--7s8--7s5--7--5--3--5--3--2--0--10s12--10-7-5-7-5-7-
    ---------------------------------------------------------------
    ---------------------------------------------------------------
    ---------------------------------------------------------------
    ---------------------------------------------------------------
    ---------------------------------------------------------------

    7-5s8-5-3-2-0--3--5s7--7-5-7-5--3h5h7--7-5-3-2h3h2-2-0---------
    ---------------------------------------------------------------
    ---------------------------------------------------------------
    ---------------------------------------------------------------
    ---------------------------------------------------------------
    ---------------------------------------------------------------

    -----12-12s8-8-8-10-8-7-7h8-5-3-2-0-0-0-2-3s10-----------------
    --12-----------------------------------------------------------
    ---------------------------------------------------------------X2
    ---------------------------------------------------------------
    ---------------------------------------------------------------
    ---------------------------------------------------------------

    -7-8-8h10-8-7---------7-5-7--10-8-7-8-----------------------X4
    --------------8-7---5---------------------------------------
    -----------------------------------------------------------
    -----------------------------------------------------------
    -----------------------------------------------------------
    -----------------------------------------------------------


    Em
    Teri Yaad
    C
    Aye jab mujhko
    Am
    Mein laut aaounga
    Em
    Woh bheegi raat
    C
    Aur baarish boondain
    Am
    Mein bheeg jaaoungaa
    Em
    Wohooohohohohoho

    -----12-12s8-8-8-10-8-7-7h8-5-3-2-0-0-0-2-3s10-----------------
    --12-----------------------------------------------------------
    ---------------------------------------------------------------X2
    ---------------------------------------------------------------
    ---------------------------------------------------------------
    ---------------------------------------------------------------
    C
    Faasalaay
    Am Em
    Simat na sakay
    C Am Em
    Raastay jo mit na sakay
    C Am Em
    In faaslon ko simtna hai
    Am
    In raaston pay
    Em
    Chalna hay
    Em
    Yeh dil ki baat
    C
    Koi jaaney na jaaney
    Am
    Mein keh jaoun gaa
    Em
    Woh terey saath
    C
    Guzaray lamhey
    Am
    Na toofan hoon ga
    Em C
    Hooohohohohohohoho

    -0---2-3--2--0-----------------------------------------15--14--10-8-7h8-7-----------------
    ---------------------------------------7h8--12--10--12------------------------------------
    ----------------2--4--5-5--4--4s5-4-0-----------------------------------------------------
    ------------------------------------------------------------------------------------------
    ------------------------------------------------------------------------------------------
    ------------------------------------------------------------------------------------------

    7h8-7-5-3h5-3--2--0-----------------------------------------------------------------------
    ---------------------3-5------------------------------------------------------------------
    ------------------------------------------------------------------------------------------
    -------------------------------------------------------------10-10-9-9-7-10-10-9-9-7------
    --------------------------7-7-9-9-9s10s-12--7-7-9-9-9s10s-12------------------------------
    ------------------------------------------------------------------------------------------

    ------------------------------------------------------------------------------------------
    ------------------------------------------------------------------------------------------
    ------------------------------------------------------------------------------------------
    ---------------------------------------10-10-9-9-7--4h5-4-2-0-2---------------------------
    --7-7-9-9-9s10s-12--7-7-9-9-9s10s-12------------------------------------------------------
    ------------------------------------------------------------------------------------------

    Em
    Jo sapnay
    C
    sajaye milke
    Am
    Khushi ke pal
    Em
    beetaye milke
    C Am
    Kya paaya main nai
    Em
    Kya khoya
    C Am
    Kab jaaga hoon main
    Em
    Kab sooya
    Em
    Teri har baat
    C
    Rulaye jab mujhko
    Am
    Mein kho jaoonga
    Em
    Woh teri chaa
    C
    Sataye jab mujhko
    Am
    Mein doob jaoonga
    Em C Am
    Hohohohohohohohohohohoho

    -------------------------------------------------------------------------------------------
    -------------------------------------------------------------------------------------------
    ------9-9-5-5-7-5-4-4h5-4-2-0-------------------9-9-5-5-7-5-4-4h5-4-2-0---------------------
    --9-------------------------4-2-2-2-4s5-12--9-------------------------4-2-2-2-4s5-12----------------------------------------------------------------------------------------------
    ------------------------------------------------------------------------------------------
    ------------------------------------------------------------------------------------------
    ------------------------------------------------------------------------------------------

    ------------------------------------------------------------------------------------------
    ------------------------------------------------------------------------------------------
    ------------------------------------------------------------------------------------------
    ------------------------------------------------------------------------------------------
    -----7-5-2-0-2---------------------------------------------------------------------------------
    ------------------------------------------------------------------------------------------
     
  2. ImR@|\|

    ImR@|\| GuiTar MaNiaC

    Bohat heee Ala Kaam yaar... U r Really superb... SoLO tu yar kUCh ziada hee fit figure out kiya hay ...
     
  3. nadish

    nadish Active Member

    Fantastic yarr! The intro is little different but still rocks. Wel done. Ur the man.
     
  4. lucku

    lucku New Member

    hi guys all the tabs of this song are posted but there is no intro therefore i m posting you the intro plz but its not 100% correct

    e-7/12--8-8-10-8-7-7h8p7-7-5-3-2--0--0-000-2-2-3-10
    b------------------------------------------------------
    g------------------------------------------------------
    d------------------------------------------------------
    a------------------------------------------------------
    e------------------------------------------------------
     
  5. me_ok101

    me_ok101 New Member

    here is the right intro...

    e---7s12-12-12-8-8-8-10-8-7---7-8-7-5-3-2-0-0-0-2-3-10---------

    comments
     
  6. Yousuf_guitar

    Yousuf_guitar New Member

    hey MAZIN.....excellent tabs..seems really hard work buddy.........
    just tell me that the chords given are supposed to be strummed or played in arpeggio?
    thnx in advnce
    Yousuf
     
  7. Quadrophenia

    Quadrophenia New Member

    erm..intro isnt so right..but great work!!! been playing the solo..which is absolutely spot on! intro needs abit of work..but u've hit the right notes and the right area of the guitar..hats off to u
     
  8. mani_rawalpindi

    mani_rawalpindi GUNS AND GUITARS

    into which me ok101 copied is right
     
  9. Quadrophenia

    Quadrophenia New Member

    how i think the intro goes..which seems right.

    e---------12-12---10-10-10---8--7-----------------------------------10~-
    b-8s12------------------------------10h12-12-10 9-7--------7--10--------
    g-------------------------------------------------------9-9---------------
    second time around is the same but the ending is with a a pull off of some wierd kind..

    so when he finsihs at the 10 ~ he plays this before going into the riff
    e----10~--10-9-------------------
    b---------------10-9---7----------
     
  10. adnanshakil

    adnanshakil New Member

    Excellent work.. just superb.. !
     
  11. Aka Oz

    Aka Oz /\K/\ - Ozy

    Yaar the best tabs and chords i found.....excellent wrk.....buddy yeh rock.......it matches very much
     
  12. J.J

    J.J The Guitar God

    great work....Rock On
     
  13. BIG_EVIL

    BIG_EVIL Guitaring Machine

    gr8 tabs........intro was a bit wrong.......
     
  14. entityp4ever

    entityp4ever New Member

    Hi! Ya...Ive been hearing alot about the intro...i listened to the song but i couldnt find anything wrong with it.... :eek::
    But the beginning of the tab is the flute part so if tht is wat ur playing then ya the intro is different sorry if I confused any1

    By the way i had a question..... I was going back to the fundementals of the guitar and bfore tht i think i developed a bad habit. When playing tabs i rest my palm on the strings (some thing like palm mute but not muting) and play the guitar...Is tht Ok or is it just preference. Because on tv ive seen people just place their palm on the strings and play fast......
    Pleez place some feed back.... :dance:
     
  15. J.J

    J.J The Guitar God

    Song = Teri Yaad
    Artist = Jal
    Tabbed By J.J

    e-7s12-12-12s8-8-8-10-8-7-
    B-------------------------
    G-------------------------
    D-------------------------
    A-------------------------
    E-------------------------


    e-7h8-7------------------10-
    B-------10-8-7-------7-8----
    G--------------9-9-9--------
    D---------------------------
    A---------------------------
    E---------------------------

    e-7s12-12-12s8-8-8-8-10-8-7-
    B---------------------------
    G---------------------------
    D---------------------------
    A---------------------------
    E---------------------------


    e-7h8-7------------------10-
    B-------10-8-7-------7-8----
    G--------------9-9-9--------
    D---------------------------
    A---------------------------
    E---------------------------

    Then Comes

    e-------------------------
    B-------------------------
    G-----------------7------- x Few Times
    D---9-9-7-9-9-7-9---9-7-9-
    A-7-----------------------
    E-------------------------

    den comes the song

    e-----x-x-x-x-x-x--------
    B-----x-x-x-x-x-x---------
    G-----x-x-x-x-x-x---------
    D-----9-9-9-9-9-9---------
    A-----7-7-7-7-7-7---------
    E-----x-x-x-x-x-x---------

    Teri Yaaad.......

    e-x-x-x-x---x-x--x-x-x-x-
    B-x-x-x-x---x-x--x-x-x-x-
    G-x-x-x-x---x-x--x-x-x-x-
    D-9-9-9-9---5-5--5-5-5-5-
    A-7-7-7-7---3-3--3-3-3-3-
    E-x-x-x-x---x-x--x-x-x-x-

    aye jub muj ko


    e-x-x-x-x-x-x--x-x-x-x--x-
    B-x-x-x-x-x-x--x-x-x-x--x-
    G-x-x-x-x-x-x--x-x-x-x--x-
    D-5-5-5-5-5-5--7-7-7-7--7-
    A-3-3-3-3-3-3--5-5-5-5--5-
    E-x-x-x-x-x-x--x-x-x-x--x-

    Mein laut aauoun ga


    e-----x-x-x-x-x-x--------
    B-----x-x-x-x-x-x---------
    G-----x-x-x-x-x-x---------
    D-----9-9-9-9-9-9---------
    A-----7-7-7-7-7-7---------
    E-----x-x-x-x-x-x---------

    o bheegie raat,

    e-x-x-x-x---x-x--x-x-x-x-
    B-x-x-x-x---x-x--x-x-x-x-
    G-x-x-x-x---x-x--x-x-x-x-
    D-9-9-9-9---5-5--5-5-5-5-
    A-7-7-7-7---3-3--3-3-3-3-
    E-x-x-x-x---x-x--x-x-x-x-

    aur barishoun mein

    e-x-x-x-x-x-x--x-x-x-x--x-
    B-x-x-x-x-x-x--x-x-x-x--x-
    G-x-x-x-x-x-x--x-x-x-x--x-
    D-5-5-5-5-5-5--7-7-7-7--7-
    A-3-3-3-3-3-3--5-5-5-5--5-
    E-x-x-x-x-x-x--x-x-x-x--x-

    mein bheeg jaaaon ga


    e-x-x--x----x-x-x-
    B-x-x--x----x-x-x-
    G-x-x--x----x-x-x-
    D-7-7--7----5-5-5-
    A-5-5--5----3-3-3-
    E-x-x--x----x-x-x-

    0ooooooh0000 h000 h0 h0000
    *******************************************
    Continue the Chords and play da intro again
    *******************************************

    e-7s12-12-12s8-8-8-10-8-7-
    B-------------------------
    G-------------------------
    D-------------------------
    A-------------------------
    E-------------------------


    e-7h8-7------------------10-
    B-------10-8-7-------7-8----
    G--------------9-9-9--------
    D---------------------------
    A---------------------------
    E---------------------------

    e-7s12-12-12s8-8-8-8-10-8-7-
    B---------------------------
    G---------------------------
    D---------------------------
    A---------------------------
    E---------------------------


    e-7h8-7------------------10-
    B-------10-8-7-------7-8----
    G--------------9-9-9--------
    D---------------------------
    A---------------------------
    E---------------------------




    e-----x-x-x-x-x-x--------
    B-----x-x-x-x-x-x---------
    G-----x-x-x-x-x-x---------
    D-----9-9-9-9-9-9---------
    A-----7-7-7-7-7-7---------
    E-----x-x-x-x-x-x---------

    Fasaleee....

    e-x-x-x-x---x-x--x-x-x-x-
    B-x-x-x-x---x-x--x-x-x-x-
    G-x-x-x-x---x-x--x-x-x-x-
    D-9-9-9-9---5-5--5-5-5-5-
    A-7-7-7-7---3-3--3-3-3-3-
    E-x-x-x-x---x-x--x-x-x-x-

    simat na sakey


    e-----x-x-x-x-x-x--------
    B-----x-x-x-x-x-x---------
    G-----x-x-x-x-x-x---------
    D-----9-9-9-9-9-9---------
    A-----7-7-7-7-7-7---------
    E-----x-x-x-x-x-x---------

    rasteyy....

    e-x-x-x-x---x-x--x-x-x-x-
    B-x-x-x-x---x-x--x-x-x-x-
    G-x-x-x-x---x-x--x-x-x-x-
    D-9-9-9-9---5-5--5-5-5-5-
    A-7-7-7-7---3-3--3-3-3-3-
    E-x-x-x-x---x-x--x-x-x-x-

    jo mit na sakey

    e-x-x--x----x-x-x-
    B-x-x--x----x-x-x-
    G-x-x--x----x-x-x-
    D-5-5--5----7-7-7-
    A-3-3--3----5-5-5-
    E-x-x--x----x-x-x-


    in fasaloun ko


    e-x-x-x-x---x-x--x-x-x-x-
    B-x-x-x-x---x-x--x-x-x-x-
    G-x-x-x-x---x-x--x-x-x-x-
    D-7-7-7-7---2-2--2-2-2-2-
    A-5-5-5-5---x-x--x-x-x-x-
    E-x-x-x-x---x-x--x-x-x-x-

    simat na hai



    e-x-x--x----x-x-x-x-x-
    B-x-x--x----x-x-x-x-x-
    G-x-x--x----x-x-x-x-x-
    D-5-5--5----5-x-7-x-9-
    A-3-3--3----3-x-5-x-7-
    E-x-x--x----x-x-x-x-x-


    in rastoun pe..Chal NA hai!!!



    e-----x-x-x-x-x-x--------
    B-----x-x-x-x-x-x---------
    G-----x-x-x-x-x-x---------
    D-----9-9-9-9-9-9---------
    A-----7-7-7-7-7-7---------
    E-----x-x-x-x-x-x---------

    yea dil ki bat.......

    e-x-x-x-x---x-x--x-x-x-x-
    B-x-x-x-x---x-x--x-x-x-x-
    G-x-x-x-x---x-x--x-x-x-x-
    D-9-9-9-9---5-5--5-5-5-5-
    A-7-7-7-7---3-3--3-3-3-3-
    E-x-x-x-x---x-x--x-x-x-x-

    koi jane na janee


    e-x-x-x-x-x-x--x-x-x-x--x-
    B-x-x-x-x-x-x--x-x-x-x--x-
    G-x-x-x-x-x-x--x-x-x-x--x-
    D-5-5-5-5-5-5--7-7-7-7--7-
    A-3-3-3-3-3-3--5-5-5-5--5-
    E-x-x-x-x-x-x--x-x-x-x--x-

    Mein keh jaoun ga


    e-----x-x-x-x-x-x--------
    B-----x-x-x-x-x-x---------
    G-----x-x-x-x-x-x---------
    D-----9-9-9-9-9-9---------
    A-----7-7-7-7-7-7---------
    E-----x-x-x-x-x-x---------

    wo teray saath...

    e-x-x-x-x---x-x--x-x-x-x-
    B-x-x-x-x---x-x--x-x-x-x-
    G-x-x-x-x---x-x--x-x-x-x-
    D-9-9-9-9---5-5--5-5-5-5-
    A-7-7-7-7---3-3--3-3-3-3-
    E-x-x-x-x---x-x--x-x-x-x-

    guzaray lamhey

    e-x-x-x-x-x-x--x-x-x-x--x-
    B-x-x-x-x-x-x--x-x-x-x--x-
    G-x-x-x-x-x-x--x-x-x-x--x-
    D-5-5-5-5-5-5--7-7-7-7--7-
    A-3-3-3-3-3-3--5-5-5-5--5-
    E-x-x-x-x-x-x--x-x-x-x--x-

    na bhool paounga


    e-x-x--x----x-x-x-
    B-x-x--x----x-x-x-
    G-x-x--x----x-x-x-
    D-7-7--7----5-5-5-
    A-5-5--5----3-3-3-
    E-x-x--x----x-x-x-

    0ooooooh0000 h000 h0 h0000

    ******************************************
    And the rest of da song in da same pattern
    ******************************************

    Phew~ im tired now
     

Share This Page