Mangatha theme music guitar tabs with video cover + tutorial

Discussion in 'Tamil Guitar Tabs - Submit or Request' started by cibhin, Oct 27, 2012.

  1. cibhin

    cibhin New Member

    Here is my video cover

    https://www.youtube.com/watch?v=Cms2IBmCMoU&feature=plcp

    Here is the tutorial (ONLY FOR BEGINNERS)

    Mangatha theme music Guitar tutorial - YouTube

    Here is the tabs :

    the intro is within

    E- -------- |
    B- --1-2-1-|
    G- 3-------|
    D- --------|
    A- --------|
    E- --------|

    And the main part is like this :

    E---3-4-3-1-1-3--1--1-3-1----1------3-4-3-1-1-3--1--1-3-1----1------|
    B-1-------------4--4------4-4--3-4-1-------------4--4------4-4--1----|
    G-------------------------------------------------------------------3--|
    D----------------------------------------------------------------------|
    A----------------------------------------------------------------------|
    E----------------------------------------------------------------------|

    E-3-3-3-3-3-3--4-3-3-3-4-3-3-1-!!
    B-1-1-1-1-1-1-1-1-1--1-1-1-1-1-!!
    G--------------------------------!!
    D--------------------------------!!
    A--------------------------------!!
    E--------------------------------!! X 2

    End part is just like the Intro :

    E---------- |
    B----1-2-1-|
    G--3-------|
    D----------|
    A----------|
    E----------|

    Please leave your comments.
     
  2. Nice Bro,
    A little different from what I tabbed.
    Please try mine and tell me how you like them.

    Opening riff.. (the first four notes of this part are played again in the main riff)

    B>-8-10-11-10---10-10-10-10-10-10---8-10-11-10---10-10-10-10-10-10----

    Second small riff

    B>-10h--10-11k-------10h-10-8k-------10h-10-11k------10h-10-8k----------

    (h- hmmering, k- kill i.e play the note for a short while and then kill the sound by lifting your finger off the fret board but still on the string - also referred to as mute by guitarists)
    Main riff...

    E>---10-11-10-8,8-10----8--------8-10-8-------8----------
    B>-8-----------------11-------11---------11,11---10-8----- ...........x 2 times

    E>-10-10-10-10----11-10--10-11-10---10-8-----------10-10-10-10----11-10---10-11-10---10-8---
    B>-------------------------------------------8-10-11--------------------------------------------- , followed immediately by

    B>-8-10-11-10---10-10-10---8-10-11-10----10-10-10----8-10-11-10---10-10-10---8-10-11-10----10-10-10----8-10-11k---

    Followed again by main riff

    I have omitted the electric guitar part and the whistle-like tune that comes between the first and second times the main riff is played.
    If you have any doubts, please comment, and use the time frames in this video as reference> Mankatha - Mangatha Theme Music - YouTube

    Enjoy!
    Regards,
    Abhay.
     
  3. cibhin

    cibhin New Member

    Yes Abhay, it sounded good, exactly like mine, except in the X2 part of your tabs.
     
  4. pearlmaharajan

    pearlmaharajan New Member

    yes... Abay.. that sounded great.. thnks.. a ton
     
  5. Thanks bro.
     
  6. My pleasure bro.
    Regards,
    Abhay
     
  7. nedu siva

    nedu siva New Member

    Dude could pls tab the electric guitar part with whistle also pls...!
     

Share This Page