Mahi Ve by Atif

Discussion in 'Pakistani Guitar Tabs - Submit or Request' started by invisiblekiller, Apr 15, 2005.

  1. invisiblekiller

    invisiblekiller New Member

    well...this is what i got. I did it my self. First song tabbed by me. :beer: not as good but well...im a begginer. I couldnt get the strumming pattern...so if some1 could help me with that i would really appreciate it...Thanks!

    Mahi Ve....
    |-----------------------------|
    |-----------------------------|
    |-----------0-----------------|
    |--------0--------------------|
    |-----0-----------------------|
    |-----------------------------|

    |-----------------------------|
    |-----------------------------|
    |--0-0------------------------| Teri..
    |------5-7--3-2-3-5-7-8------|Dilaa diyaan galan mein noo....
    |-----------------------------|
    |-----------------------------|

    |-----------------------------|
    |-----------------------------|
    |--3-3------------------------|look look....
    |-------3--5-7-5--------------| deeiin...hawawaan..
    |-----------------------------|
    |-----------------------------|
    |-----------------------------|

    |-----------------------------|
    |-----------------------------|
    |-----------0-----------------|
    |--------0--------------------|
    |-----0-----------------------|
    |-----------------------------|

    Mahi Ve...
     
  2. sweet_girl_babe

    sweet_girl_babe New Member

    hi yer,
    would u mind if i add u in? well i already have.
     
  3. qizilbash

    qizilbash New Member

    nah not cool but well for a newbie
     
  4. Orange Guitar

    Orange Guitar IGT's ALLROUNDER

    is it vocal melody???? try postin correct chords!
     
  5. invisiblekiller

    invisiblekiller New Member

    yeah it is the vocal melody. ah..im sorry!
     
  6. Quadrophenia

    Quadrophenia New Member

    nice work, nearly there!
     
  7. BIG_EVIL

    BIG_EVIL Guitaring Machine

    doesnt sound good to me
     
  8. Orange Guitar

    Orange Guitar IGT's ALLROUNDER

    agree with big evil!
     
  9. invisiblekiller

    invisiblekiller New Member

    big evil maybe it will be different with ure tuning. ah well..forget it.
     
  10. Orange Guitar

    Orange Guitar IGT's ALLROUNDER

    no man...it is not good!
     
  11. invisiblekiller

    invisiblekiller New Member

    umm ok...so..u can close this thread or something.
     
  12. BIG_EVIL

    BIG_EVIL Guitaring Machine

    hey ..atleast u tried
    whats the points of closing it
     
  13. invisiblekiller

    invisiblekiller New Member

    thank you big evil!
     

Share This Page