Linkin Park (a Place For My Head)intro Tabs

Discussion in 'English Guitar Tabs - Submit or Request' started by Mohsin shahid, Aug 20, 2005.

  1. Mohsin shahid

    Mohsin shahid New Member

    Use Pick Up Pick Down Format


    Intro

    E---------------------------------------------------------------------------------
    B---------------------------------------------------------------------------------
    G----------------------------------------------------------------------------------
    D----------------------------------------------------------------------------------
    A-----------8-8-8-8-8-9-8-6----------------------------------------------------
    E----6-6-6---------------------9-9-7-7-7-7-7-9--------------------------------


    E---------------------------------------------------------------------------------
    B---------------------------------------------------------------------------------
    G----------------------------------------------------------------------------------
    D----------------------------------------------------------------------------------
    A-----------8-8-8-8-8-9-8-6----------------------------------------------------
    E----6-6-6---------------------9-9-7-7-7-7-7-9--------------------------------
     
  2. ssslayer

    ssslayer Banned

    i dunno ... i just compared it to actual song and it sounds 1 string low ...
    if u play these tabs on "A" and "D" string they sound good along with the CD song ...

    here are the tabs (which i have tested ... and they feel do sound OK):
    lifted from Ultimate guitar tabs ...

    Linkin Park, A Place For My Head.
    Tabbed by flik3@hotmail.com.

    Artist: Linkin Park
    Song: A Place For My Head
    Album: Hybrid Theory
    Tabbed by: Rick Thornburgh


    Dropped D tuning (DADGBE)

    Intro/verse
    e-|-----------------------------------------------
    B-|-----------------------------------------------
    G-|------3-3-3--4-3-1-----------------------------
    D-|-1--1--------------4--4--2-2-2-2-2-4--1--------
    A-|-----------------------------------------------
    D-|-----------------------------------------------

    Verse when the vocals come in and it goes
    distorted, it changes a little like this:
    e-|-----------------------------------------------
    B-|-----------------------------------------------
    G-|-------3-4-3-1---------------------------------
    D-|-1--1------------4-4--2-2--4-1-----------------
    A-|-----------------------------------------------
    D-|-----------------------------------------------

    Chorus
    e-|-----------------------------------------------
    B-|-----------------------------------------------
    G-|-----------------------------------------------
    D-|-1-1-1-8-9-8-6-4--4-2-2-2-2-4-1----------------
    A-|-1-1-1-8-9-8-6-4--4-2-2-2-2-4-1----------------
    D-|-1-1-1-8-9-8-6-4--4-2-2-2-2-4-1----------------

    End Part
    e-|-----------------------------------------------
    B-|-----------------------------------------------
    G-|-----------------------------------------------
    D-|---1-1--1-1-1--1-1-1--1-1-1-4------------------
    A-|---1-1--1-1-1--1-1-1--1-1-1-4------------------
    D-|---1-1--1-1-1--1-1-1--1-1-1-4------------------
    -p.m. - - - - - - - - - - -

    Order:
    Intro 8x
    Verse 6x
    Chorus 4x
    Verse 6x
    Chorus 4x
    Quiet part 4x ("You try to take the best of me, go away")
    Chorus 8x
    End Part 8x


    :: Ultimate Guitar Archive ::
    http://www.ultimate-guitar.com
     
  3. ayad

    ayad New Member

    man linkin park rox
     

Share This Page