lead of mai agar kahoon !

Discussion in 'Hindi Guitar Tabs - Submit or Request' started by anubhav27, Feb 23, 2008.

  1. anubhav27

    anubhav27 New Member

    e-8-9-8-9-8-9-8-----------------------------------------------
    b---------------11-9-9-9-11-9-11-9-11-9-8--8---8---8---------------
    g------------------------------------------10--10--10--10-8-
    d------------------------------------------------------------11-10---
    a------------------------------------------------------
    E------------------------------------------------------

    e---------------------------------8---------------------
    b-----------------------8---8-9-8--9-11-8-6-4-4s6-------------------
    g-------------8-10-8-10--10------------------------------------
    d--8-10-10s11--------------------------------------------------
    a------------------------------------------------------
    E----------------------------------------------------
    how it sounds????hear it!!!!!
    http://www.soundclick.com/bands/default.cfm?bandID=756161
     
    aeg0 likes this.
  2. Lahori_rocker

    Lahori_rocker Guitar God left IGT

    hmmmmmmmmmmmmmm..ok
     
  3. anubhav27

    anubhav27 New Member

    thanks for reply..wat took u so long????(hmmmmmmmmmmmmmmmmm)any changes.....i know there may b some faults in the written transcription but the one i recorded is complete!!!!!!!wat say????
     
  4. petrifiedpimp

    petrifiedpimp New Member

    pretty dammn good!!!!!!
    keep da gud work up.
     
  5. anubhav27

    anubhav27 New Member

    thanks for that....motivative reply!!
     

Share This Page