Khamaj tabs (most accurate) by Fuzon

Discussion in 'Pakistani Guitar Tabs - Submit or Request' started by aysh, Sep 26, 2005.

  1. aysh

    aysh -|h3 ori9in4| (ui!aris-|-

    this is the way i play it and it sounds very close to original


    e-------------------11~----------------------------------------------
    B--11----12---9----------------9----11----9---------------------------
    G--11---------10--------11---10----11---10---11---8-----------------------
    D----------------------------------------------------------------------
    A---9-----9----8----------9----8-----9-----8----9----6-----------------
    E---------------------------------------------------------------------


    e--7p6p4-----------------------------------------------------------------
    B------------6~---7---4~--6~-----------------------------2~---------------
    G---------------------------------------11----8-------4s6-----------------
    D----------------------------------8-9-----9----9--8--------------------
    A------------8-----9---6----8-----------------------------------------
    E---------------------------------------------------------------------



    play this thing twice an in the second time replace e--7p6p4--
    with
    e--6h7p6p4----
    B---------------7--

    an again when it plays in between stanzas with
    e-----------7--4--
    B--7----7---------
    G----6------------
    there is no hard and fast thing as such tho .. coz shallum xavier changes it in every live show : )



    **below part played after the above intro and leads into the song

    e------2-------2-------2-------2--------2-------2-------2h4-2---2h4p2----
    B----2-------2-------2-------2--------2-------2-------2-----------------
    G----------4-------3-------3----------------4-------3------------------
    D--4--------------------------------4----------------------------------
    A----------------------------------------------------------------------
    E-----------------------------------------------------------------------


    [ these are the stanza riffs
    P1 .............................. P2
    e------2----------2----- e------2-----------2-----
    B----2----------2------- B----2-----------2------
    G-------------4--------- G-3------------3----------
    D-4--------------------- D------------------------
    A----------------------- A------------------------
    E----------------------- E------------------------
    ]


    P1 P2 ...................................P1 P2
    sawan beto ja re k harwaa, sawan beto ja re k harwaa

    P1 P2 .................................P1 P2
    mun mera ghabraaaayee, mun mera ghabraaaayee

    P1 P2..................................... P1 P2
    aaisay gayo pardes pia tum, aaisay gayo pardes pia tum

    P1 P2 ................................................P1 P2
    chain hamein nahi aaaaaaaaaaaye, chain hamein nahi aaaaaaaaaaaye


    Chorus:

    P1 ...............................F# ........Bsus2...........................F#
    Mora saiyaa mosay bole naa, Mora saiyaa mosay bole naa

    Bbm........................ F#....... Bbm................F#
    mein lakh jatan kur haari, laakh jatan kur haaaaaaaarri

    Bsus2.............................. F# ......Bsus2..........................F#
    Mora saiyaa mosay bole naa, Mora saiyaa mosay bole naa

    solo is already posted

    u can listen to the song audio here
    http://www.coolgoose.com/go/song?id=192910&get=bin
    (if it doesnt work then search for khamaj in hindi classical)
     
  2. Aka Oz

    Aka Oz /\K/\ - Ozy

    good wrk bro
     
  3. kl12

    kl12 (Ghost Note)

    excellent work nemo........
    intro sounds cool but a bit difficult..
     
  4. aysh

    aysh -|h3 ori9in4| (ui!aris-|-

    thx man ! yeah intro is difficult to play fluently but overtime wen it comes it'll sound sweet
     
  5. Spellbinder

    Spellbinder Crescentarian

    They r excellent man gud work
    _________________________
    Its Magic!!
     
  6. aysh

    aysh -|h3 ori9in4| (ui!aris-|-

    ^^aka and spell , thanx a lot guys
     
  7. nadish

    nadish Active Member

    I dont understand these tabs nemo, but I'm gonna listen to ur work, may be I can understand them by that...
     
  8. nadish

    nadish Active Member

    yarr nemo!! ur link to that file isn't working... check it again...
     
  9. aysh

    aysh -|h3 ori9in4| (ui!aris-|-

    its working perfectly dude i checked
    otherwise heres another link .. http://rapidshare.de/files/4861684/khamaj.mp3.html

    i know what the problem in understanding might be .. the tabs which are there in the same (vertical) line are meant to be plucked at the same time .. i.e play all three notes simultaneoulsy with ur fingers . so pluck 9th fret on A string and 11th frets on B and G strings together ..
     
  10. nadish

    nadish Active Member

    Ok I'll check the new 1 coz ur 1st link doesn't work for me...
     
  11. nadish

    nadish Active Member

    4.58 MB's recording???? is it ur own recording or the original song by Fuzon???
     
  12. aysh

    aysh -|h3 ori9in4| (ui!aris-|-

    nadish recording is mine only .. chk it if u havent
     
  13. Aka Oz

    Aka Oz /\K/\ - Ozy

    thxxxxxxxxx
     
  14. nadish

    nadish Active Member

    Yarr that site doesn't support DAP and I'm using a normal Dial-Up connection, so this file is too big for me to download with out DAP, please upload it to ne other place....

    Thanx
     

Share This Page