Kahani Gher Gher Ki - Star plus Serial

Discussion in 'Hindi Guitar Tabs - Submit or Request' started by umarboy, Apr 15, 2004.

  1. umarboy

    umarboy Tabber

    song = Kahani Gher Gher Ki
    tabed by umar
    comments @ [email protected]


    E -10-9-10----9-------------------------
    B ---------12---10-12-12----------------
    G --------------------------------------
    D --------------------------------------
    A --------------------------------------
    E --------------------------------------
    Rishtoun ki pooja jahan ho



    E -10-9-10----9-------------------------
    B ---------12---10-12-12----------------
    G --------------------------------------
    D --------------------------------------
    A --------------------------------------
    E --------------------------------------



    E ----9-10-14-12-12---------------------
    B -12-----------------------------------
    G --------------------------------------
    D --------------------------------------
    A --------------------------------------
    E --------------------------------------



    E -------9-12-10-10---------------------
    B -10-12--------------------------------
    G --------------------------------------
    D --------------------------------------
    A --------------------------------------
    E --------------------------------------



    E ----9-10-14-12-12---------------------
    B -12-----------------------------------
    G --------------------------------------
    D --------------------------------------
    A --------------------------------------
    E --------------------------------------



    E -------9-12-10-10---------------------
    B -10-12--------------------------------
    G --------------------------------------
    D --------------------------------------
    A --------------------------------------
    E --------------------------------------




    E ----------10-9-9----------------------
    B ----10-12-----------------------------
    G -12-----------------------------------
    D --------------------------------------
    A --------------------------------------
    E --------------------------------------


    E -12-10--------------------------------
    B ------10-12h14-12-12-12---------------
    G --------------------------------------
    D --------------------------------------
    A --------------------------------------
    E --------------------------------------

    im really not sure about the lyrics..but the tune is 100% Fit so enjoy :D
     
  2. anjali18

    anjali18 New Member

    Kahani Ghar Ghar Ki” TV serial from Balaji Tele Films had been delivered on Star Plus Channel with “Kyunki Saas Bhi Kabhi Bahu Thi”. The TV serial was also in the direction and production of Ekta Kapoor. “Kahani Ghar Ghar Ki” is the Hindi name of “The Story of every House”. The serial had about 1700 episodes and it has been considered as landmark for TV industry in Indian TV serial.
     

Share This Page