Junoon - Pappu yaar (opening riff.)

Discussion in 'Pakistani Guitar Tabs - Submit or Request' started by Quadrophenia, May 2, 2006.

  1. Quadrophenia

    Quadrophenia New Member

    okay here the opening riff to pappu yaar tang na kar. from the album dewaar by junoon, dotn knwo if its posted or not..
    you must get the timing right otherwise it will sound crap. so listen..!

    b----------------------------------7-------------
    g------9-----9-7--9-7-------------7--------------
    d----------------------9-9-7------7--------------
    A-----------------------------9------------------

    chord

    e---7-----------------
    b---7-----------------
    G---7-----------------
    D---9-----------------
    A---x-----------------
    E---x-----------------
    aa sadiyan tu naqlan utaar
    o pichche hat saadi chedd na guitar
    tenu chade sau variyan bukhar..

    thatts when this chord is used. but i cant tell the rest.its mostly riff based.
    anyways. tell me what you guys think.
    :cool:
     
    .:SpY_GaMe:. likes this.
  2. maaani

    maaani New Member

    plz can u give me the accurate chords of manwa re 100 accurate? plzz
     
  3. Quadrophenia

    Quadrophenia New Member

    how about using the search button? if you still cant find it then goto www.ultimate-guitar.com you should find it there. if not then sing along and start tabbing!
    i would've told you the chords, but since u dont know what to post where.. i'm not.. dont ruin threads but mixing requests.thank you!
     
  4. ahm3d_nad33m

    ahm3d_nad33m New Member

    the pappu yaar riff doesn't go like that. its like this

    [-----------------------------]
    [-----------------------------]
    [------------------------7-----]
    [-9-9-7-9-7-------------7-----]
    [-----------9-8-7-7-----------]
    [------------------10-7-------]

    copy paste in note pad (the last two notes are played together)
     
  5. Quadrophenia

    Quadrophenia New Member

    nice will try it out. thanx!!
     
  6. junoonist

    junoonist New Member

    Lyrics are
    Na Sadiyaan Tu Naklaan Utar
    Pechan Hat Sadi Cher Na Guitar
    Tenu Charhay So Wariaan Bukhar
    O Kahi Hoye Tera Bera Na Par.....!
     

Share This Page