JOHNNY GADDAR - theme song

Discussion in 'Hindi Guitar Tabs - Submit or Request' started by umangu, Sep 14, 2007.

  1. umangu

    umangu New Member

    Great song, very shimmering guitar work. I'll keep adding parts when I have time, here's the main riff to get you started.

    I've now added video to show you how it's done, otherwise half the gandoos on this forum that couldn't play a chord to save their life will come around telling me it's wrong!

    It uses tremolo, chorus and maybe some echo on the intro. Played through some wonderful sounding gear, probably on a Fender Strat, so don't complain if it doesn't sound the same on your Givson/Hobner!

    e|----------------------------
    b|-------------------3--3--1--
    g|------2----2----2-----------
    d|----------------------------
    a|---0----3----2--------------
    E|----------------------------

    Choti si zindagi, gehri si jeb hai
    Baaki to jaaneman, baaton ke seb hain (what!?) x2

    It carries on like this until the chorus...

    e|---------------------------------------
    b|---------------------------------------
    g|--9----------8----------------7---------
    d|--9---10-----8---------------7---10-0--
    a|--7---10-----6---------------5---10-9--
    E|-------8--------------------------8-7--

    Hey Johnny, zindagi jua hai, khel yaar



    Then you go back to playing the riff, or if you want more bite, play this very Nirvana-esque power chord sequence:

    e|-----------------------------------------------
    b|-----------------------------------------------
    g|-----------------------------------------------
    d|--7---7-/-10---10---9---9-/-12---12---10-\-9---
    a|--7---7-/-10---10---9---9-/-12---12---10-\-9---
    E|--5---5-/-8-----8---7---7-/-10---10----8-\-7---


    Then a very small, simple riff

    e|-------------------------------------------
    b|-------------------------------------------
    g|------7b8b7--5--7b8b7--5--7b8b7--5~~
    d|-------------------------------------------
    a|-------------------------------------------
    E|-------------------------------------------


    e|--------------------------------------------------------
    b|-------------------------------------------------8b11--
    g|----5--7--7b8b7--5--7b8b7--5--7b8b7--5---------------
    d|--7----------------------------------------------------
    a|-------------------------------------------------------
    E|-------------------------------------------------------

    [youtube]RqlvVVtqugI[/youtube]
     
    satan_4_infinit likes this.
  2. satan_4_infinit

    satan_4_infinit New Member

    just now heard the title track of johnny gaddar after your post...n ur right..sum real neat guitar work in this song...
    nice post umangu...
    am waitin for the video...tiranga n umangu in action...
    keep up the good work
     
  3. umangu

    umangu New Member

    Thanks man. The video's now been added, extra quick for you!
     
  4. satan_4_infinit

    satan_4_infinit New Member

    neat work mate...hopefully will do a cover ...
     
  5. satan_4_infinit

    satan_4_infinit New Member

    b4 i forget .... am lookin for more videos from ur side...this time sumthing angrezzzzi
     
  6. guitar_lover

    guitar_lover New Member

    unbeliveble post budddy....
    really awesome work....
    and wht is this guitar....plz tell us smthn abt this...!!!
     
  7. umangu

    umangu New Member

    Sure thing man. I've been waiting to get a new amp before I did a 'review' of my guitar!

    I'm hopeful of buying my amp this weekend. Dekhenge...
     
  8. umangu

    umangu New Member

    Thanks man, just take a look at my site http://users.tpg.com.au/umangu
     
    heyjoe12 likes this.
  9. heyjoe12

    heyjoe12 New Member

    really nice post and good work dude! Was very helpful. Can you put up the lyrics of the song as well if you have them?

    thanks
     
  10. atiq

    atiq 4amanth2_2t1q

    the video helped alot....its a good idea......
     
  11. rahul91

    rahul91 New Member

    i need help

    nice work mate!!
    dude can u teach me or gimme sum tips on how 2 play barre chords properly.
    I am a beginner and i just can wait 2 learn.. hope u will help me

    cheers!!
     
  12. umangu

    umangu New Member

    Hi Rahul,
    There's no shortcut to playing barre chords. You need to place your index finger just behind the fret. Press really hard. Start with just the index finger and play each string individually. If every string sounds clear, progress to playing the rest of the chord. Although, I didn't use any barre chords for this song, just simple power chords.
    Umang.
     
  13. DJCrunkMix

    DJCrunkMix Get crunked up!

    Nice one man..

    Just checked out your website. The fact that you luthier'ed your own guitar is pretty badass!! Kudos man...that some genuine creativity there...I just bought a new Breedlove AD25/SR Plus Acoustic/Electric and, let alone building one, it was hard enough to choose a pre-made one!!
     
  14. Mamadi

    Mamadi New Member

    I was loooking for this song for last one week...
    After watching this movie, i was desperate to learn this song.
    And finally i got it... its really rocking song man...
    Awesome work.......
     
  15. chiragrocks

    chiragrocks New Member

    Hey Nice Work Can U Taeach Bout Strummin Pattern Bout Dis Song
     
  16. umangu

    umangu New Member

    :p: I know what you mean. I was lucky. I had known for atleast 2 years that I wanted nothing but a Les Paul, so buying my first guitar was not hard.

    But I spent 6 months looking for the perfect amp. Bought a Fender Deluxe 2 weeks back. Now I'm looking for something else to obses about!
     
  17. umangu

    umangu New Member

    Man, I don't bother much with strumming pattersn so I don't know how to explain. I just play whatever I like.

    This song is easy. Just try 8 downstrokes over each line.

    Hey
    1,2,3,4

    Johnny
    1,2,3,4

    Zindagi jua hai
    1,2,3,4

    Khel yaar
    1,2,3,4
     
  18. umangu

    umangu New Member

    UPDATE!!!!

    Here's a better way to play the riff. If you have a tremolo, set it to the same speed at which you play each note. The effect has to be pretty saturated for it to sound like the original.

    Thanks, to my mate Darren for correcting me.

    e|---------------------------------------------
    b|----------------------------------------------
    g|---------2---------2----------2-----2-------
    d|------2----2----2----2-----2----0-----------
    a|---0---------3----------2--------------3-----
    E|----------------------------------------------


    Whoo! Hoo! And with that, I complete 100 posts on IGT!
     
  19. Abhishekgivson

    Abhishekgivson New Member

    really very nice work
     
  20. prabhat_saraswa

    prabhat_saraswa New Member

    two words...

    f**kin awesome mate!! :)

    nice work... and yes, it doesn't really matter the quality of guitar if u are a heck of a player.. !!

    something shown so rightly in ur case :)

    keep them flowing in :)
     

Share This Page