Jilawatan by Call tabs and chords

Discussion in 'Pakistani Guitar Tabs - Submit or Request' started by R@hGuZaR, Sep 5, 2005.

  1. R@hGuZaR

    R@hGuZaR DRUMMER 2 THE GRAVE

    if u havnt heard the song get the link from call's forums
    this my my first tab and my own, work of Daniyal Khan, dont go ahead pposting it somewhere else without my permission, if u can give me the credit go ahead and do so

    ----intro part 1-----
    e |
    B |
    G |
    D |---5-5--5-------7-7--5-------5-5-5--2
    A |-7-----7-------7-----7---------5-5-5--2
    E |---------------------------------5-5-5--2
    \-------- --------------/
    \/
    palm mute
    repeat intro part 1 as necessary and add a few very high notes on the last time

    ----intro part 2----
    repeat as necessary
    e |
    B |
    G |
    D |-2-5-5-2-5--2-7-7-2-5---3-3-3-0
    A |-2-5-5-2-5--2-7-7-2-5---3-3-3-0
    E |-2-5-5-2-5--2-7-7-2-5---3-3-3-0


    ---verse---[palm muted]
    e |
    B |
    G |
    D |--8-8-8-6--8-8-8-6--13-13-13---------------8-8-8-6---8-8-8-6--9-9-9
    A |-7---------7----------7------------------------7----------7----------7
    E |
    \_______ ____________/
    \/
    repeat as necessary, listen to song for timing

    ---bridge----
    e |
    B |
    G |------------------------/6-6-6-6/12-12-12-12-12-12---------
    D |-5-5-4-4-2--------------------------------------------------------
    A |-5-5-4-4-2--------------------------------------------------------
    E |-5-5-4-4-2--------------------------------------------------------

    e |
    B |
    G |------------------------/6-6-6-6/11-11-11-11-11-11---------
    D |-5-5-4-4-2--------------------------------------------------------
    A |-5-5-4-4-2--------------------------------------------------------
    E |-5-5-4-4-2--------------------------------------------------------

    --Chorus--
    -5------6---------------------5--3
    -5------6---------------------5--3
    -5------6---------------------5--3
    Jilawatannnnnnnnn ho hoooooooooooooooooo
    -2------3---------------------2-----------0
    -2------3---------------------2-----------0
    -2------3---------------------2-----------0
    Jilawatannnnnnnnn yeeeeee yeeeeeeeeeeeee

    [fill here with distortion part of bridge]
    same chords as bfore[above]
    Jilawatannnnnnnnn ho hoooooooooooooooooo

    Jilawatannnnnnnnn yeeeeee yeeeeeeeeeeeee


    ---fill between first chorus and 2nd verse----
    palm mute
    G |---5-4-5-4-5-4----
    D |-0-------------------


    i think u can play pretty much the whole song with this excpet for the solo, i have also tabbed that but ill post it later on
    this is my first ever tab so if u think im wrong ne where ill be more than hppy to be corrected
    Tabbed by Daniyal Khan :rule: :rock:
     
  2. nadish

    nadish Active Member

    Yarr tell me the link to download this song.....
     
  3. R@hGuZaR

    R@hGuZaR DRUMMER 2 THE GRAVE

    yaar just go to www.thebandcall.com washan say forums main jao, scroll ker ky chek ker lo topic bana ho ga us main link hai
     
  4. Quadrophenia

    Quadrophenia New Member

    songs grown on me after listening to couple of times looking good!


    222 what kinda power chord is that? that wudda be a 5th if it was drop D tuning..which it isnt.. :annoyed:
     
  5. R@hGuZaR

    R@hGuZaR DRUMMER 2 THE GRAVE

    well its just an altered power chord, i like using them , they r easier, and proper power chords wernt used in the live version of the song
     
  6. faiqrock

    faiqrock XaiQ

    why dont u give us the link?????
     

Share This Page