Jhankaar Beats, RHTDM, Pehla Nasha

Discussion in 'Hindi Guitar Tabs - Submit or Request' started by buntyramani, Jan 19, 2004.

  1. buntyramani

    buntyramani New Member

    Hey,

    I really need the tabs for the following songs.
    Tu aashiqui hai - Jhankaar Beats
    Suno Na - Jhankaar Beats
    Dilko - RHTDM
    Zara Zara - RHTDM
    Pehla Nasha - Jo Jeeta Wohi Sikandar

    If anybody can help me, I'd be really greatful. my email addy is buntyramani@hotmail.com.

    Thanks a lot.!:beer:
     
  2. scot_hacker

    scot_hacker New Member

    (what are rules for???)

    Read the rules dude. Put in "REQ:" in the subject. Never mind though...

    I think Dil Ko... was put up on the forum somewhere.

    -= Pehla Nasha =-
    Actual Intro. The soft piece that's played upon start.

    Code:
                                                                            
    E---5--5--8--8--------8--5--3--3--8--8--------1--1--3--5----------------
    B---------------------------------------------------------------1--3----
                                                                            
                                                                            
    E------------1--------------------------1-------------------------------
    B---------3-----------3--1--------3--3-----3--------1--1--1-------------
    G------------------------------------------------------------0--2--0----
    
                                                                            
    E-----------------------------------------------------------------------
    B------------------------------1-----------------------------------1----
    G---------0--0--0--2--3--2--0-----0--2--0--0--------2--0----------------
    D---------------------------------------------------------3-------------
    
                                                                            
    E---5--3--1-----6--5--3--1--3--5--3--1----------------------------------
    B------------1----------------------------------------------------------
    
    Main part (I call it the ringtone part!)

    Code:
                                                               
    E---1--1--1--0--1--8--1--0--1--1--1--0--1--8--1--0----------------------
    B---------------------------------------------------3--3--3--------3----
    
                                                                            
    E---0--1--3--1--3--3--3--------1--3--5--6--5--3--1--------1--1--1--0----
    
                                                                            
    E---1--8--1--0--1--1--1--0--1--8--1--0--------------------0--1--0--1----
    B---------------------------------------3--3--3--------3----------------
    
                                                                            
    E------1--3--1--------6--------5--------5--5--8--8--10--------8--3------
                                                                            
    
                                                                            
    E---5--10--8--------5--5--8--8--8--------10--8--6--5--3--3--3-----------
    
                                                                            
    E---1--0-----0--1--5--3--3--------5--3--1--0-----0--1--6--5--5----------
    B---------3-----------------------------------3-------------------------
    
                                                                            
    E---1--3--5--1--3-------------------------------------------------------
    
    (all I ever knew and cared...)
    (adapted from keyboard. Tab is very messy. Yay.)
     
  3. hotguy_me

    hotguy_me New Member

    I wud love the chords of Tu Aashiqui hai .plz post someone :)
     
  4. Redalert

    Redalert New Member

    http://www.indianguitartabs.com/showthread.php?s=&threadid=741&highlight=RHTDM


    check this thread
     

Share This Page