Jehangir Aziz-Never Change Tabs

Discussion in 'Pakistani Guitar Tabs - Submit or Request' started by BIG_EVIL, Apr 4, 2006.

  1. BIG_EVIL

    BIG_EVIL Guitaring Machine

    just figuired this out


    Chords used
    D5-x577xx
    F5-133xxx
    A#5-688xxx

    Intro
    Palm Muted with slight distortion
    e--------------------------------
    b--------------------------------
    g--------------------------------
    d---7-----------------0-----0-----
    a-5---5------3------8--8--8--8---
    E----------1-------6-----6-------


    Bass Notes
    g------------------------
    d------------------------
    a------------------------
    E-10-10 10\1-1-1/6-6-6--


    _____________________________________________

    Verse

    Use Intro tabs

    This will never end,
    i cant comprehend
    ive lost everything
    and im still drowning..yeah

    ___________________________________________

    Chorus

    ....D5.............F5..........A#5...
    ur making me fall on my knees
    ..D5...........F5........A#5.......
    i have to make u stop by begging
    ..D#5......F5.........!#5
    everything i knewwwwwww.
    ....D5.........F5......A#5.......................
    was never really there...was never there

    __________________________________________

    Verse 2
    intro tabs
    __________________________________________
    Chorus
    ___________________________________________
    Guitar Solo

    e-----------------------------------------------------------
    b-----------------------------------------------------------
    g-----------------------------------------------------------
    d------------------------------15-12-------12-----------------
    a--12-15-17-15\12-13--Pause--------15-----15-10 10/12----
    E-----------------------------------------------------------



    e------------------------------------------------------
    b------------------------------------------------------
    g------------------------------------------------------
    d------------------------------------------------------
    a-12-15-17--15-12-10-PAUSE-15-13-12-13-10-13------
    E------------------------------------------------------

    e-------------------------------------
    b-------------------------------------
    g--------------------------------------
    d--------------------------------------
    a-12-15-17-15-12-12/13---------------
    E-------------------------------------



    FAST PART REPEAT 32 times
    e---------------------------
    b--------------------------
    g--------------------------
    d--15-12----12------------
    a--------15-----15-12-----
    E--------------------------

    _________________________________________________

    Chorus
    _________________________________________________

    END SONG
    _________________________________________________

    yayeeeeeee i did it
    finally

    please comment
     
    faiqrock likes this.
  2. faiqrock

    faiqrock XaiQ

    hey Bigi
    Chah gaya yar...
    Cool work...
    woh and im still drowning..yeah key baad wala part :p:
    Reps!
     
  3. faiqrock

    faiqrock XaiQ

    Bigi yar
    Dont u think The Intro should be
    G|--------------------------------|
    D|------------------0-------0-------|
    A|---12----s3----s8---8---8---8-------------|
    E|-10----s1----s6-------6----------------|
    (i know tht in start, intro 5-7 and 10-12 are same note..but intro is in sliding...so tht 1 ...i think is better...wht u say?)

    And the d5 should be this....
    D5 (10-12-12-x-x-x)

    Chk Recording
    http://www.soundclick.com/bands/pagemusic.cfm?bandID=488619
    Bye tc:rock:
     
  4. BIG_EVIL

    BIG_EVIL Guitaring Machine

    yeah..D5
    10-12-12xxx
    577xxx
    same thing dude
     
  5. faiqrock

    faiqrock XaiQ

    Han DUDE:p:
    wohi tu keh raha hoon:D key same thing...
     
  6. faiqrock

    faiqrock XaiQ

  7. Lahori_rocker

    Lahori_rocker Guitar God left IGT

    yar faiq after every sentence why do u always show ur tongue....anyways gr8 work bigii
     
  8. faiqrock

    faiqrock XaiQ

    Hahahaha good point:p:
    lol well i love the Smily with The Tongue tu is liye ..
    hehe
    neva mind:D:rock:
     
  9. grimreeper_007

    grimreeper_007 New Member

    gr8 work big evil
     

Share This Page