Jeena Yahan Marna Yahan(Golden Hits Rewind) Guitar Chords

Discussion in 'Hindi Guitar Tabs - Submit or Request' started by jimihndrx, Jul 6, 2013.

  1. jimihndrx

    jimihndrx Guitar Hero

    Mera-Naam-Joker.jpg
    Song- Jeena Yahan Marna Yahan
    Film- Mera Naam Joker(1970)
    Lyrics- Shailendra
    Music- Shankar-Jaikishen
    Singer- Mukesh

    Chords: continuing my "Golden Hits Rewind" series covering one song from each Legendary Singers..Today I present you Immortal Classic from Mukesh.. here I've given you the correct chords for this song in right scale.


    Mukhra:
    {(F#m)Jeena ya(D)han (C#)marna ya(C#7)han..iske siva (D)jaana ka(F#m)han}-[2 times]

    (F#m)Jee chahe (Faug)jab humko (A6/E)awaaz (Ebm7b5)do
    (E)hum hain wa(D)hin (C#)hum thhe ja(F#m)han

    (F#m)Apne ya(D)hin (C#)dono ja(C#7)han..iske siva (D)jana ka(F#m)han

    Antra:
    {(F#)Yeh mera geet (B)jeevan sangeet
    (Bm)kal bhi koi (F#m)dohrayega}-[2 times]

    (F#)Jag ko hasane (B)behrupiya
    (Bm)roop badal phir (F#m)aayega..(C#)..(E)..(F#m)..(C#)

    (F#m)Swarg ya(D)hin (C#)nark ya(C#7)han..iske siva (D)jaana ka(F#m)han

    (F#m)Jee chahe (Faug)jab humko (A6/E)awaaz (Ebm7b5)do
    (E)hum hain wa(D)hin (C#)hum thhe ja(F#m)han

    (F#m)Apne ya(D)hin (C#)dono ja(C#7)han..iske siva (D)jana ka(F#m)han

    rest is same


    jimihndrx

    (Faug-xx3221)
    (Ebm7b5-xx1222)
    (A6/E-xx2222)


     
    Last edited: Apr 17, 2017
  2. raga2303

    raga2303 Member

    Jimihndrx - the guitar hero :)
     
  3. jimihndrx

    jimihndrx Guitar Hero

    thanks for the compliment Raga.
    Appreiciated
     
  4. jimihndrx

    jimihndrx Guitar Hero

    Tabs(mukhra part only)-

    *(Jeena yahan marna yahan, iske siva jaana kahan)

    E|------------------------------------------------------------
    B|------------------------------------------------------------
    G|---------1-2----1-------------------------------------------
    D|-----4-------------3---4-6--------3---4-6----7--6---3-4-----
    A|--4----------------------------4----------------------------
    E|------------------------------------------------------------


    *(Jee chahe jab humko awaaz do, hum hain wahin hum thhe jahan)

    E|--------------------------------------------------------------------
    B|--------------------------------------------------------------------
    G|--6---7---4---6--6--6---6--7---4--6----4--1---4--2---1------1-----
    D|----------------------------------------------------------3------4---
    A|--------------------------------------------------------------------
    E|--------------------------------------------------------------------


    jimihndrx
     
    Last edited: Feb 25, 2017

Share This Page