Jao Na guitar chords and intro tabs

Discussion in 'Hindi Guitar Tabs - Submit or Request' started by ajaygodase, Sep 1, 2009.

  1. ajaygodase

    ajaygodase New Member

    Song : Jao Na
    Movie: What's your Raashee
    Music: Sohail Sen

    E ------------------------------------------
    B ----------------------3-2-----------------
    G ------0------2------2-----2-0---------0---
    D --0-3----0-3----0-3---------------0-3-----
    A --------------------------------3---------
    E ------------------------------------------


    (Gm/A#)*Tum jo ho toh gaa rahi (F)hai yeh hawa
    (Gm/A#)*tum jo ho toh reshmi si (F)hai fiza

    (D#)jao na… (F)jao na

    (Gm)jao na… jao na

    (D#)jao na (F)… jao na

    (Gm)jao na… jao na

    (Gm)tum jo ho toh gaa rahi hai (F)yeh hawa
    (Gm)tum jo ho toh reshmi si (F)hai fiza

    (D#)jao na… (F)jao na
    (Gm)jao na… jao na
    (D#)jao na (F)… jao na
    (Gm)jao na… jao na

    (C)phir na yeh raat (A#)aayegi
    (F)phir na yeh rut (Gm)chhayegi
    (C)phir na yun milna(A#) hoga
    (F)phir na jaane kya (Gm)hoga

    (D#)jao na… (F)jao na
    (Gm)jao na… jao na
    (D#)jao na (F)… jao na
    (Gm)jao na… jao na


    *its your choice Gm or A#
    i prefer A#
    watch it on you tube
    http://www.youtube.com/watch?v=NaGC0rVzrOk
     
  2. bonson

    bonson New Member

    Dude.. To start with 'B' sounds incorrect in ur progression yaar... atleast u can start with 'A#'... But that also makes it incomplete.... I think 'Gm' is more accurate...
     
  3. sandyssn

    sandyssn New Member

    Intro

    Good try! But I somehow think this sounds more appropriate!

    E ------------------------------------------
    b ------------------------------------------
    g ------0------2------2-7-5-3-2-----2-0----
    d --0-3----0-3----0-3-----------0-3--------
    a ------------------------------------------
    e ------------------------------------------
     
  4. mani_manu

    mani_manu New Member

    http://www.indianguitartabs.com/showthread.php?t=42297&page=2&p=397831
     
  5. ajaygodase

    ajaygodase New Member


    no buddy listen 2 d song again
    my tabs r correct only i hvent given sliding part dats it
    ur ending is totally wrong
     
  6. ajaygodase

    ajaygodase New Member

    sorry its nt B it shud be A# even Gm will sound good
     
  7. intex_hld

    intex_hld New Member

    hi can u give me the complete intro of this song
    thanks in advance
     
  8. ron_parab

    ron_parab New Member

    Request for Jao naa tabs

    Nice Dude, But can you please submit full intro tab for the song Jao Naa from Whats ur Rashi
     

Share This Page