Janay Kon Thi Haseena-Recording, Intros & Tabs

Discussion in 'Pakistani Guitar Tabs - Submit or Request' started by faiqgiant, Jun 26, 2005.

  1. faiqgiant

    faiqgiant .: Innocent :.

  2. faiqgiant

    faiqgiant .: Innocent :.

    beat 16 sounds fine 4 strumming
    use da following chord progression 4 da song u can add a few chords as well

    G---Tunic
    C---subdom
    D---dominant

    INTRO
    E|---------------------------------------------------------------------------------------------|
    B|--------------------------------3-----------------------3-----------------------------------|
    G|-------0-2-0---------44-2-4----4-2-0-------44-2-4---4-2-0-------2-0---2-0-2-0----|
    D|--0-2--------2--------------------------2-----------------------2-------------------------|
    A|---------------------------------------------------------------------------------------------|
    E|---------------------------------------------------------------------------------------------|

    SONG STARTS
    E|-----------------------------------|
    B|-----------------------------------|
    G|--4-4-2-4-4-2-0-0--------------|
    D|-----------------------------------|
    A|-----------------------------------|
    E|-----------------------------------|
    Janay kon thi haseena

    E|-----------------------------------|
    B|------------3----------------------|
    G|--4-4-2-4---4-2-0-0------------|
    D|-----------------------------------|
    A|-----------------------------------|
    E|-----------------------------------|
    Jo dil la gai mugh say mera

    E|-----------------------------------|
    B|-----------------------------------|
    G|--0-2-0---0-0-245--------------|
    D|---------2------------------------|
    A|-----------------------------------|
    E|-----------------------------------|
    Kuch bhi karma paya hoooo

    E|-----------------------------------|
    B|-------3-55-3----3--------------|
    G|--5-5----------5-----------------|
    D|-----------------------------------|
    A|-----------------------------------|
    E|-----------------------------------|
    Yunhi takta reh gia hoooo

    REPEAT INTRO

    E|-----------------------------------|
    B|-----------------------------------|
    G|--4-2-0-2-442-0----------------|
    D|-----------------------------------|
    A|-----------------------------------|
    E|-----------------------------------|
    Kia sohani shaam thi

    E|-----------------------------------|
    B|-----------------------------------|
    G|--4-420-2-4-420---------------|
    D|-----------------------------------|
    A|-----------------------------------|
    E|-----------------------------------|
    Payal ki jhankaar thi

    E|-----------------------------------|
    B|-----------------------------------|
    G|--5-5-2-4-5-542----------------|
    D|-----------------------------------|
    A|-----------------------------------|
    E|-----------------------------------|
    Dheeray say chalna us ka

    E|-----------------------------------|
    B|--3-3-----------------------------|
    G|------4-2-4-420-----------------|
    D|-----------------------------------|
    A|-----------------------------------|
    E|-----------------------------------|
    taroon mein who chaand thi
     
  3. Quadrophenia

    Quadrophenia New Member

    hey man that sounds great...spot on!! :cheers:
     
  4. faiqgiant

    faiqgiant .: Innocent :.

    thanx buddy
     

Share This Page