jana kaha hai - dilkash shama ( Chalte Chalte) ; Vappi Lahari

Discussion in 'Hindi Guitar Tabs - Submit or Request' started by JUDAS_666, Jul 17, 2013.

  1. JUDAS_666

    JUDAS_666 New Member

    Music:Vappi Lahari
    Lyrics: ?
    Singers: Sulakshna Pandit and Vappi Lahari
    youtube link : http://www.youtube.com/watch?v=6FBT6URS10M

    Such a beautiful song, I wonder why it didn't become a superhit number of its time? 'coz vappi da gave his own voice instead of Kishore Kumar? Anyways, enjoy the chords and let me know of any shortcoming in my transcription :)


    Guitar Intro
    E -----------------------------------------------------------------------------------------------
    B ---------------------------------------------------(G#m Plucking)------------------------------
    G -------3-6/8-6--(F# plucking)--6/8-6-----------------------------------------------------------
    D -4-4/6-------------------------------8-6-6/8-6-4-1---------------------4-6-6/8-6-4---4--------
    A -------------------------------------------------------------------4/6-------------6-----------
    E -----------------------------------------------------------------------------------------------

    F# A#m*,,,,,,,,,,,,,,,,,,,,,,,,,,,,,,,,,,,,,,,,,,,,,,,,,,, * you may Play Fmaj7 instead, but I prefer A#m)
    F# (A#m F#7)**,,,,,,,,,,,,,,,,,,,,,,,,,,,,,,,,,,,,,,,,,,, ** Play the two chords half-step each
    G#m G#sus4 G#m G#sus4


    Note: Use the following structure/pattern for playing the mentioned chords

    F# A#m F#7 G#m G#sus4
    E-2--1----0---4-----4------
    B-2--2----2---4-----4-----
    D-3--3----3---4-----6---
    G-4--3----4---6-----6---
    A-4--1--------6-----6---
    E-2-----------4-----4---

    Whistling.....(Aww!)

    (F# F# A#m A#m ) X 2

    [F#]Jana kaha hai ...tu ru ru ru ru
    Pyaar ya[A#m]ha hai....tu ru ru ru ru
    Duniya ja[G#m]waan hai....tu ru ru ru
    Dilkash sha[F#]ma hai......dil kash shama hai

    * Repeat once *

    F# A#m

    Ru....... Tu ru ru
    F# A#m D#m F# F# } X 2

    ru ru ru.....Ru ru ru ( Play following chords)

    E-4--4--4-------
    B-4--4--4--2-----
    G-4--4--4--4-----
    D-6--5--4--3-----
    A-6--6--6--4----
    E-4--4--4-------

    Ru ru ru
    F# X 5

    B7 F F# ( just before commencing the antara)

    Ba[F#]haar hi ba[A#m]haar hai
    [F#7]mehka mehka pura chaman hai
    [G#m]kisskaa inte[A#]jaar hai ( the best part!!!)
    [G#m]Dil beka[F#]raar hai

    You can now play the whole song :) :)

    I just did this in a haste so I know there are a lot of mistakes....please let me know
    Au revoir
     

Share This Page