Jal - Aadat (my version, completely tabbed + solos)

Discussion in 'Pakistani Guitar Tabs - Submit or Request' started by pnainani03, May 21, 2006.

  1. pnainani03

    pnainani03 Request and I'll tab

    Title: Aadat
    Artist: Jal – Atif Aslam
    Tabbed by: Paras Nainani

    Hey guys hope you like it, if you do please give me reps or at least reply.

    Intro
    E--------------------------------------------------0---0---0----
    B-----2----4-2---4-2---4-2---4-2---------2-----2---2---2---
    G--1----1------1------1-----1------1----2----2---2---2---2--
    D----------------------------------------------------------------
    A----------------------------------------------------------------
    E----------------------------------------------------------------
    (Play this how many ever times you want to)

    All solo’s (in order but they are not one after the other)
    E---------0---------------0----------------0---------0-----------
    B--2-0-2---2-0---2-0-2---2-0-----0-----------0--0----------
    G----------------------------------2----2-----2------------------
    D----------------------------------------------------------------
    A----------------------------------------------------------------
    E----------------------------------------------------------------

    E----0---4-7-4----0---4-7-4----------------------------------
    B--2---2---------2---2-----------------2-----2-5-7-----------
    G------------------------------------2------2-------------------
    D----------------------------------------------------------------
    A----------------------------------------------------------------
    E---------------------------------------------------------------- x2

    E----4-5-4-4-4—2-0---2--------------------------------------
    B-----------------------4-----4h5p4-2-5/6/7------------------
    G----------------------------------------------------------------
    D----------------------------------------------------------------
    A----------------------------------------------------------------
    E----------------------------------------------------------------

    E----4-5-4-4-7-9-7-9/10/11-9-7-7--7-5-7-5-4-2----------
    B----------------------------------------------------------------
    G----------------------------------------------------------------
    D----------------------------------------------------------------
    A----------------------------------------------------------------
    E----------------------------------------------------------------

    Thanks – And please don’t forget to rep or reply!
    Paras N.
     
  2. Orange Guitar

    Orange Guitar IGT's ALLROUNDER

    NOT AGAIN AADAT MAN!!!! but very very nice try!!!!!!
     
  3. the_batman

    the_batman New Member

    I understand it's your version...but holy smokes that intro is way off.
     
  4. pnainani03

    pnainani03 Request and I'll tab

    hehe...oopsh :oops: :sorry:
     
  5. aeg0

    aeg0 Guitarıng Alchemist

    finally this forum gets to see new songs tabbed out.
     
  6. Quadrophenia

    Quadrophenia New Member

    i think ppl shud start posting it back to front..that'd still be quite impressive
     
  7. pnainani03

    pnainani03 Request and I'll tab

    very funny. thanks guys for that sarcasm. but hey, at least i tried...

    Paras N.
     
  8. vikramk

    vikramk New Member

    Thanks paras.
    I like the song and video too
     
  9. pnainani03

    pnainani03 Request and I'll tab

    why thank you vikramk...see fellows? thats how you appreciate effort hahah just joking :)

    Paras N.
     
  10. chandy

    chandy New Member

    Good Going

    It went a way of at a few places. Good tht u tried it.
     

Share This Page