intro of 'chura liya hai tumne'

Discussion in 'Hindi Guitar Tabs - Submit or Request' started by varun123, Aug 22, 2006.

  1. varun123

    varun123 New Member

    dedicated to Mr. Arindam.Ray ... awesome work dude in ur previous thread .. u talked about intro of chura liya hai here's the intro

    E-----0---------------0----------------------------0--------
    B--------1--0-----------1--0--------1-0--------------2-0---
    G---2----------2----2--------2----2------2------2---------2
    D-2----------------2-------------3-----------3-0-------------

    E--------------------------------------------------------
    B-----0-------0------0-----0-----0------------------------
    G-1---------2---2-2----2-2---2-2----2----------------------
    D---2------------------------------------------------------

    enjoy!!
     
  2. sukrut

    sukrut God Guitarist

    hey where do you stay???????
     
  3. Morbid_Angel

    Morbid_Angel Sid the sloth

    how does dat matter?

    @varun
    very nice tabbin man
     
  4. vini

    vini Repeat Offender

    thanx a lot for posting the tabs dude, i owe u my life!m seeing these tabs for the first time at igt..thanx *breaks down*
     
  5. varun123

    varun123 New Member

    hey guys 65 views and only 3 replies ... dont b a leecher ... reply karo yaaron
     
  6. varun123

    varun123 New Member

    m frm delhi
     
  7. cumming soon

    cumming soon Banned

    nice tabs .pretty accurate
     
  8. jozko

    jozko Banned

    Wow Looks keenly worked out one. 21st note E looks perfect!!

    However ur 22nd note is C# but i strongly feel it is D. Could u help me out posting an audio or video of ur version?

    my personal version (audio http://iyrattil.com/churalintro.mp3 , excuse poor playing) derived from Bandbaaja's is

    Code:
    E -----0-------|-----0-------|
    B -------1-0---|-------1-0---|
    G ---2-------2-|---2-------2-|
    D -2-----------|-2-----------|
    A -------------|-------------|
    E -------------|-------------|
    
    E -------------|-----0--------|
    B -----1-0-----|------3-0-----|
    G ---2-----2---|---2------2---|
    D -3---------3-|-0------------|
    A -------------|--------------|
    E -------------|--------------|
    
    E ---------0----------|
    B -------0---3--0-----|
    G -1---1--------------|
    D ---2-----------2p0--|
    A --------------------|
    E --------------------| Violin. 
    
    E -----------------|-----------------|
    B 0---0---0---0----|0---0---0---0----|
    G ---2---2---2---2-|---2---2---2---2-|
    D -----------------|-----------------|
    A -----------------|-----------------|
    E -----------------|-----------------|
    The original tune is so sweet. Also listen www.itwofs.com/audio/ifitstuesday.rm it seems to be the real song as reported here www.itwofs.com/hindi-rdb.html

    Perhaps he/she wants to join ur class. wish i too could. Good to have an instructor here.
     
  9. Morbid_Angel

    Morbid_Angel Sid the sloth

    C# sounds good.
     
  10. jozko

    jozko Banned

    thx Arnold
     
  11. iprakash

    iprakash Proud IGTian

    @varun123, dude you are a Ctrl-C, Ctrl-V (or Shift-Ins ;)) genious.
     
  12. prateek420

    prateek420 New Member

    ..Nice work..Who gives a shit even if it is copy paste!
     
  13. koolhuzefa

    koolhuzefa New Member

    cam somebody send me tabs in numbersss i cant understand this......for example....2/3 3/5 5/2.....plzzzzzzzzzzzz
     
  14. vijesh4ever

    vijesh4ever New Member



    Well these played on 6th,5th and 4th sounds much better......
     
  15. HritwRaje

    HritwRaje New Member

     

Share This Page