i cant get The format of chords

Discussion in 'Beginner's Q&A Forum' started by sumit.inurheart, Feb 23, 2007.

  1. sumit.inurheart

    sumit.inurheart New Member

    hi friends,,,
    i am sumit

    i am not able to get th format in which u r posting the chords of aadat-jal!!!!
    can't u post in nodes form??
    or please tell me how to understand it!!!

    e--------------6--------6--------6---------6--------|
    b----------------6--------6--------6---------6------|
    g-------------4---------4--------4---------4--------|
    d----------------------------------------------------|
    a----------------------------------------------------|
    e----------------------------------------------------|

    wot do u mean by these kind of chords any body please help me out
     
  2. faiqrock

    faiqrock XaiQ

    Sumit,
    the format u have posted is Arpeggio
    the numbers 6 6 4 on diff strings are the notes on the fretboard...
    so if u see like
    e--------2-------------------------------------------|
    b------3---------------------------------------------|
    g----2-----------------------------------------------|
    d--0-------------------------------------------------|
    a----------------------------------------------------|
    e----------------------------------------------------|
    thats an D chord the easiest chord i guess :p: so 0 2 3 2 are the fret numbers...Attaching an picture so u can have an idea and its a C chord in the attachment picture...

    ps: thread moving to Beginner's Q&A Forums
     

    Attached Files:

  3. vini

    vini Repeat Offender

    what you have given here^ is called TABS format and not chords(i.e, u pick one note or notes at a time and not strumming which is done when chords are given)...in order to learn how to read/play it(tabs) check this link-

    http://www.indianguitartabs.com/showthread.php?t=153
     
  4. faiqrock

    faiqrock XaiQ

    ^ yeah vini tabs :$ arpeggio word is bit hard 4 him i guess :p:
     

Share This Page