I am posting tabs for Kanmani Anbodu from Guna

Discussion in 'Tamil Guitar Tabs - Submit or Request' started by abhishekmalyala, Aug 19, 2012.

  1. This is one of my favourite songs from my fave music director and fave film director....

    ---Kanmani Anbodu Kaathalan Naan Ezhuthum Kadithamae
    D>-----7-------------------------------------------
    G>-7-8-----10-10-8------7-8----7-------7----------
    A>--------------------10----------8-7-8---10------

    ```Ponmani Un Veetil Sowkiyama Naan Ingu Sowkyamae
    D>-----7-------------------------------------------
    G>-7-8-----10-10-8------7-8------7-------7----------
    A>--------------------10------------8-7-8---10------

    Unnai Enni Paarkaiyil Kavithai Kottuthu
    D>------------------------------------
    G>--------7----7-----------7----------
    A>-8-7-8---10----8--8-7-8---10-------

    Athai Ezhutha Ninaikaiyil Vaarthai Muttuthu
    D>------------------------------------
    G>--------7----7-----------7----------
    A>-8-7-8---10----8--8-7-8---10-------

    ---oh ho...
    D>------------------------------------
    G>-7--8----------------------------------
    A>------------------------------------

    ---Kanmani Anbodu Kaathalan Naan Ezhuthum Kadithamae
    D>-----7-------------------------------------------
    G>-7-8-----10-10-8------7-8----7-------7----------
    A>--------------------10----------8-7-8---10------

    ```Ponmani Un Veetil Sowkiyama Naan Ingu Sowkyamae
    D>-----7-------------------------------------------
    G>-7-8-----10-10-8------7-8------7-------7----------
    A>--------------------10------------8-7-8---10------

    I am still tabbing the song, will post the rest soon :)
     
  2. pearlmaharajan

    pearlmaharajan New Member

    EBGDAE is the guitar string arrangement right?
     
  3. cibhin

    cibhin New Member

    its cool thank you... It would sound better if its within the first 3 strings :) Anyway thank you
     
  4. Yes... I play it with the third, fourth and fifth strings
     
  5. The highest note we play here is the "D" at the end of "kanmani"... So can't play it involving the first string without meddling with the pitch.

    But we can surely play it with the 2nd, 3rd and 4th strings using

    B>------3-1-1-----------------------------
    D>-2-3--------3-0-2-3-2---------2-0--
    G>---------------------------3-2-3-------

    But when you play it at normal tempo, the first notes with 3rd, 4th and 5th strings sounds sweeter and is easier to play.
     
  6. pearlmaharajan

    pearlmaharajan New Member

    whom every trying.. please try to accommodate in the lower 3 strings... that sounds nice... please
     
  7. Though not in its original pitch, you can try this on the first string :)

    E>-5-6-10---8-8-6---3-5-6--5---1-0-1-5-3----
     
  8. The interlude is in violin and I can't make out the tabs for it on guitar... Any help would be appreciated. But the second interlude goes something like this

    E>-5-6-5---------5---5-6-5----------7------------
    B>---------6-5-6--------------6-5-6----------------
     
  9. Undaana Kaayamengum Thannaalae Aaripøna Maayam Ènna Pønmaanae Pønmaanae..
    B>--6-6-5----5-6-6---6-8-6-5------------------------------5-----5-6-------------ll
    G>----------7----------------------7-5------------5-7---5-7-----7-------------------ll
    D>----------------------------------------8---7-8---------------------------------------ll

    Ènna Kaayam Aana Pøthum Èn Maeni Thaangi Køllum Unthan Maeni Thaangaathu Šenthaenae..
    B>-6-6-6-5----5-6-6---6-8-6-5------------------------------5-----5-6-------------ll
    G>-----------7----------------------7-5------------5-7---5-7-----7-------------------ll
    D>----------------------------------------8---7-8---------------------------------------ll

    Ènthan Kaathal Ènnavendru Šøllaamal Aenga Aenga Azhugai Vanthathu..
    B>--------------------------------------------------------------------ll
    G>-5-5-5------5-7-5---5-7-5-------------------------------------ll
    D>---------8-8-------------------8-77-5---5-5-7-5-7-8----------ll

    Ènthan Šøgam Unnai Thaakkum Ènrennumbøthu Vantha Azhugai Nindrathu..
    B>--------------------------------------------------------------------ll
    G>-5-5-5------5-7-5---5-7-5-------------------------------------ll
    D>---------8-8-------------------8-77-5---5-5-7-5-7-8----------ll

    Please note that these tabs cannot teach us to vary the pace between two notes. THAT CAN ONLY BE DONE BY METICULOUS PRACTICE LISTENING TO THE SONG AND PLAYING REPEATEDLY.
     
  10. SATHYA167

    SATHYA167 New Member

    One needs repeated practice after listening to the tempo of this song. At places, the song appears as if the lyrics are spoken rather than singing. A challenging one to play in guitar...... Sathya
     
  11. Sathya Sir,
    ... Can you guide me as to where to start and tab "Sippi Irukkudu" from the movie Varumayin Niram Sivappu.... It has been one of my fav songs since my childhood.
    Regards,
    Abhay
     
  12. pearlmaharajan

    pearlmaharajan New Member

    no buddy.. even after a lot of time trying... i couldnt get it... I doubt the tabs...
    sorry if I am wrong...
     
  13. SATHYA167

    SATHYA167 New Member

    It starts as s s s s s s. I will soon put the tabs. It is in C major basically.
     
  14. Manithar Unarnthu Kølla, Ithu Manitha Kaathal Alla..
    B>----------------------------5555----------------------------------------ll
    G>---7777--5---------------------7-5-----------------------------------------ll
    D>-7------------8-7---7-7--------------8-------------------------------------ll

    Athaiyum Thaandi Punithamaanathu..
    B>--5555-55-6-5-6-7---ll

    Rest of the lyrics follow the same tune as kanmani anbodu.... and unnai yenni paarkayil

    SO, this ends my first own full tab in IGT :)
     
  15. SATHYA167

    SATHYA167 New Member

    Good - Nice attempt...
     
  16. thank you sir.... I have made out the first lines as
    SSSSSS SSSSSS SSSSSS SSRS nnn
    Snnnnn nnnnnn nnnnnn nSRM GRS

    Thanks:)
    Abhay
     
  17. v.raghura87

    v.raghura87 New Member

    superb , nice
     
  18. maybe you should try them using the first three strings using the notations above in their corresponding notations.
     
  19. thanks bro :)
     
  20. Ramsk0408

    Ramsk0408 New Member

    Sathya, waiting for your version of tabs in PDF..!! ;)
     

Share This Page