how to play dum maro dum on the first string of guitar?

Discussion in 'Hindi Guitar Tabs - Submit or Request' started by natty_sem, Sep 1, 2012.

  1. natty_sem

    natty_sem New Member

    Last ni8 a boy of my colony played "dum maro dum" (starting rhythm). He used only the lowest (e) string and nothing else. No capo nothing like that. I asked him for the tabs but he didn't give me. Is anyone here who can give me those tabs?
     
  2. Thats easy bro.... the song originally is in D major scale.... So, up it to E major scale and you can play it on the last string without using the other strings...
    There are more than one ways to do it... but this should serve your purpose well :)

    ....Dum Maro Dum......Mith Jaye Gum....Bolo Subaah Shyam
    E|--2-45-45-----------------2-2-45-45--------------0-0-2-4-2-4-------------||

    .....Hare Krishna Hare Ram
    E|--5-4-5-4-5-4-2------------||
     
  3. Thats easy bro.... the song originally is in D major scale.... So, up it to E major scale and you can play it on the last string without using the other strings...
    There are more than one ways to do it... but this should serve your purpose well :)

    ....Dum Maro Dum......Mith Jaye Gum....Bolo Subaah Shyam
    E|--2-45-45-----------------2-2-45-45--------------0-0-2-4-2-4-------------||

    .....Hare Krishna Hare Ram
    E|--5-4-5-4-5-4-2------------||
     
  4. you could also try to play it with 3-56-36----- 3-3-56-36----1-1-3-5-3-5---6-5-6-5-6-5-3....
    That would be Fmajor scale.
    The only difference is the pitch.
     
  5. natty_sem

    natty_sem New Member

    I asked about the starting rhythm played before the song. What you wrote there is not that what I'm looking for!
    I'm talking about the main rhythm of this song. Hope you guys understand>>>>>>>>>>>>!
     
  6. ok... the intro? i couldn't get that quite right , but...

    Try this>> E>-0-5-7-8----8-8-7-8-7---ll
     
  7. Actually.... this sounds better>
    E>-0-5-7s8----8-8-7s8s7s8--------lll

    the last part , pick when you are on 7th fret, then slide ur finger to 8th, back to 7th ,and back to 8th again.
     
  8. alpha1

    alpha1 I BLUES!

    Don't have the guitar with me right now.
    Its pretty easy.


    e-------0h1----1---1----1---0h1--------0h1---1---1---1----0h1----------
    B----3-------------------------------3-----------------------------------
    G-2-------------------------------2--------------------------------------

    http://www.indianguitartabs.com/f6/chords-intro-tabz-dum-maro-dum-e-n-j-o-y-13326.html#post140400
    Key is D minor.


    If your friend was using just one string - he probably doesn't know how to play the guitar.
     
  9. tirtha2chester

    tirtha2chester New Member

    This post gave me cancer...
     
  10. deepkush

    deepkush New Member

    @natty_sem- yes u can play the intro with the high E string only with just a little bit use of open B string ...here it goes ..check it out ...

    E|---0-2h3-3-3-3h2h3-----0-2h3-3-3-3h2h3-----0-2h3-3-3-3h2h3---------||
    B|-0-------------------0-------------------0-------------------------||
    G|-------------------------------------------------------------------||
    D|-------------------------------------------------------------------||
    A|-------------------------------------------------------------------||
    E|-------------------------------------------------------------------||

    E|-0--------------||
    B|---3--0---------||
    G|--------3-------||
    D|----------------||
    A|----------------||
    E|----------------||



    E|-0--2-3-0-3------0-0-2-3-0-3----------0-2-0-2----------------------||
    B|----------------------------------3-3------------------------------||
    G|-------------------------------------------------------------------||
    D|-------------------------------------------------------------------||
    A|-------------------------------------------------------------------||
    E|-------------------------------------------------------------------||
    Dum Maro Dum......Mith Jaye Gum....Bolo Subha Shyam:)D)

    E|-3-2-3-2-3-2-0--||
    B|----------------||
    G|----------------||
    D|----------------||
    A|----------------||
    E|----------------||
    Hare Krishna Hare Raam...


    E|---0-2h3-3-3-3h2h3-----0-2h3-3-3-3h2h3-----0-2h3-3-3-3h2h3---------||
    B|-0-------------------0-------------------0-------------------------||
    G|-------------------------------------------------------------------||
    D|-------------------------------------------------------------------||
    A|-------------------------------------------------------------------||
    E|-------------------------------------------------------------------||


    E|-12-12-12-12-14-12-10-10-----10-10-10-10-14-12-10--8---------------||
    B|-------------------------------------------------------------------||
    G|-------------------------------------------------------------------||
    D|-------------------------------------------------------------------||
    A|-------------------------------------------------------------------||
    E|-------------------------------------------------------------------||
    Chahe Jiyenge Marenge..........Hum Na Kisise Darenge....


    E|-8-8-8-8-12-14-12-14-14-----14-14-14-14-15-14-12-12----------------||
    B|-------------------------------------------------------------------||
    G|-------------------------------------------------------------------||
    D|-------------------------------------------------------------------||
    A|-------------------------------------------------------------------||
    E|-------------------------------------------------------------------||
    Humko Na Rokhe Zamana........Jo Chayenge Woh Karenge.....



    E|-12-10-12/10----12-10/8----10-8/7----------------------------------||
    B|-------------------------------------------------------------------||
    G|-------------------------------------------------------------------||
    D|-------------------------------------------------------------------||
    A|-------------------------------------------------------------------||
    E|-------------------------------------------------------------------||
    Aaaaaa Aa Aa Aaa Aa Aa Aaa Aa Aa Aaa

    E|-0--2-3-0-3------0-0-2-3-0-3----------0-2-0-2----------------------||
    B|----------------------------------3-3------------------------------||
    G|-------------------------------------------------------------------||
    D|-------------------------------------------------------------------||
    A|-------------------------------------------------------------------||
    E|-------------------------------------------------------------------||
    Dum Maro Dum......Mith Jaye Gum....Bolo Subha Shyam:)D)

    E|-3-2-3-2-3-2-0--||
    B|----------------||
    G|----------------||
    D|----------------||
    A|----------------||
    E|----------------||
    Hare Krishna Hare Raam...
     
  11. natty_sem

    natty_sem New Member

    Dum maro dum

    I discovered my own. Here it goes:
    Put your ring finger on D string on 7th fret, pinky finger on G string on 7th fret, index finger on B string on 5th fret and the middle finger will be used to hammer on B string on 6th fret.
    Now strum D string (7th fret), G string (7th fret), B string (5th fret) and hammer on 6th fret on B string. Once you start you'll get the sound and you guys can play the rest notes yourselves.
    Hope this will work there as it works here.
    Regards.
     

Share This Page