Hi can nebody tab me the Hutch ad song??(You and i) plz

Discussion in 'English Guitar Tabs - Submit or Request' started by acebuddy129, Sep 19, 2004.

  1. acebuddy129

    acebuddy129 S¡nE® Sá¡nT

    Please anybody tab the correct version of hutch ad song,
    it goes something like this.
    You and i in this beautifull world,
    You and i in this beautifull world,
    green grass....blue sky in this beautifull world.


    Please i really need it.
     
  2. gautam_njoy

    gautam_njoy New Member

    hey yehhh even me wud luv to have it.. plz some1 ...
    plz try to tab it out... plz
     
  3. fictional_real

    fictional_real Pyaasi Jawani

    tabs for the cute little hutch song

    hi guys,
    i tried to figure the tabs out...and here it is. it sounds 95% same as on the ad. plz gimme feedback if there is any correction needed...

    >>>>>>>>INTRO<<<<<<<<<<(basically played through out the songs...we can play with chords too...however, i think this is sound better)

    --------------------|--------------------|
    ----0---0----0---0- |----0---0----0---0- |
    -------0--------0---|-------0--------0---|
    ---0--0-----0--0--- |---0--0-----0--0--- |
    --0--------0--------|--0--------0--------|
    -2--------2---------|-2--------2---------| play 2 times...

    --------------------|--------------------|
    ----0---0----0---0- |----0---0----0---0- |
    -------0--------0---|-------0--------0---|
    ---0--0-----0--0--- |---0--0-----0--0--- |
    --0--------0--------|--0--------0--------|
    -2--------2---------|-2--------2---------|

    you and i...in this beautiful world.......


    sorry, guys...i dont have the whole lyrics. you just start playing...you'll know it eventually where exactly to the lyrics comes.




    these tabs goes for the whole song, there are no chords or strumming patterns. just follow the tabs...

    please gimme feedback...

    :rockon:
     

    Attached Files:

  4. 6String_assasin

    6String_assasin The Painkiller

    its easy, just mess around with G n kinda C..fingerpick..nice n romantic..really. but i'm very lazy to tab it.
     
  5. k_arvind

    k_arvind cool guitarist!

    fictional_real, the tabs are good but i guess you can improve on them. im trying on it, see if you can improve them
     
  6. acebuddy129

    acebuddy129 S¡nE® Sá¡nT

    guys nice but,i was xpecting something more. Cuz i know, all tht hav been disscused here. neways thanks guys. keep rockin
     
  7. fictional_real

    fictional_real Pyaasi Jawani

    i am working on it...

    gimme some time......thanx.
     
  8. monty

    monty New Member

    the tabs for the song are very cool...

    can anyone send the chords of the song ??
     
  9. jayswami

    jayswami Blue J

    what is hutch?
     
  10. shan_d_dude

    shan_d_dude New Member

    the chords can be SOMETHING LIKE THIS
    G
    u and i
    C
    in dis beauti ful world.............(repeat )

    sorry dude i dont no the bridge
    but d base chords
    e------------------------------
    b-----------------------------
    g--------------------------------
    d--------------------------------
    a-----------2--3--3-2----------
    e--------3----------------------
     
  11. fictional_real

    fictional_real Pyaasi Jawani

    hey it is guys.....

    --------------------------|
    -----2--------------------|
    --------3--4---4---3---1-|
    --3-----------------------|
    --------------------------|
    --------------------------|

    play it through out the song....its sound more accurate to me!

    gimme feedback...to correct or for anything

    @jayswami....didnt u watch the ad where there is dog wid a one small kid and dat little follows the kid where he goes....
     
  12. bhubanrp

    bhubanrp New Member

    hutch(u n I)

    try these
    G, Cadd9
    and then C
    G: 100023
    Cadd9:11023X
    C:01023X
    Am:012200
     
  13. estranged

    estranged New Member

    Accurate tabs of the hutch commercial theme somg

    ------------------------------------|
    -----------2---2------------2---2-----|
    --------------------------------------|
    --------------------------------------|
    ----5-2-3---2------5-2-3----2--------|
    -3---------------3--------------------|

    --------------------------------------|
    -----------2---2------------2---2-----|
    ---------------------------------------|
    --------------------------------------|
    ----5-2-3---2------5-2-3---2---------|
    -3---------------3--------------------|

    For those of you who's got a little difficulty
    Stretching their pinky finger for the D note on 'a' string
    Can use the tabs given below: -

    ----------------------------------------|
    -----------2---2------------2---2-------|
    ----------------------------------------|
    ----0--------------0--------------------|
    ----- 2-3----2--------2-3----2----------|
    -3-------------- 3----------------------|

    -----------------------------------------|
    -----------2---2------------2---2-------|
    -----------------------------------------|
    ----0---------------0-------------------|
    ----- 2-3---2---------2-3----2----------|
    -3-------------- -3---------------------|
     
  14. estranged

    estranged New Member

    Accurate tabs of the hutch commercial theme somg

    Here guys... try it out.. its accurate with thr original feel
    --------------------------------------------|
    -----------2---2--------------2---2--------|
    --------------------------------------------|
    ----0-----------------0---------------------|
    ------2-3---2-----------2-3----2-----------|
    -3------------------3-----------------------|

    --------------------------------------------|
    -----------2---2--------------2---2--------|
    --------------------------------------------|
    ----0-----------------0---------------------|
    ------2-3---2-----------2-3----2-----------|
    -3------------------3-----------------------|

    Continue with the same pattern for the rest of the song....
    It's really difficult to play and sing along at the same time
     
  15. javalogix

    javalogix New Member

    Sounds inetersting can any one provide me the download link......
     
  16. javalogix

    javalogix New Member

Share This Page