Gumm hai kisi ke pyar mein..(easy version)

Discussion in 'Hindi Guitar Tabs - Submit or Request' started by raj_aryan, Apr 10, 2005.

  1. raj_aryan

    raj_aryan Moderator

    hi frnds..
    these are the easy tabs of GUM HAI KISI KE PYAR MEIN with only 1 string..

    e-----------------
    B-4-3-4-3-1-1-1-1-
    G-----------------
    Gum hai kisi ke pyar mein...

    e-----------------
    B-1-3-4-6-4-3----
    G-----------------
    Dil subha shaam...

    e----------------------
    B-3-3-3-10-3-5-3-3-3-0-
    G----------------------
    Par tumhe likh nahin paun...

    e----------------------
    B-3-2-3-3-5------------
    G----------------------
    Main uska naamm...

    i've dn tht much..
    any mistakes , corrections, plszz comment..
     
  2. atthanii

    atthanii Theif Slayer

    it simply sux...don't make sense wotsoever
     
  3. raj_aryan

    raj_aryan Moderator


    It's is clear that you are posting all this comments ,just to grab the attention of others... nothing else..If I was in your place, and, find the tabs are wrong then i will surely post the corrrection fr it , instead of making such sily comments.
    haaa haaa poor chap.. :shutup: :eek::

    i thnk you already got a warning for your sily comments in this thread :

    http://www.indianguitartabs.com/showthread.php?t=7730

    heehhh enjoy !!! jst go on fooling yourself..
    :beer: :p:
     
  4. atthanii

    atthanii Theif Slayer

    don't need attention...i just want u to stop copying other people's stuff...simple as dat....
     
  5. raj_aryan

    raj_aryan Moderator

    can you show me the site or link frm where i copied it ??????????!!!!!!!!!!!!!!!!!
     
  6. atthanii

    atthanii Theif Slayer

    i gave proof to da others...remeber the poems...and u never bothered reply back to them....
     
  7. Subhro

    Subhro Argentina lost :"(

    he he chill guyz.. :)

    atthanii.. hat dhoke raj ke piche par gaya hain.. :Laughing:.. run aryan !! :Laughing:

    nyways don kno whthr da tabs r copied or its ur work.. non of ma business.. but da tabs r not fully corrct..

    e----------------------
    B-3-3-3-10-3-5-3-3-3-0-
    G----------------------
    Par tumhe likh nahin paun...

    e----------------------
    B-3-2-3-3-5------------
    G----------------------
    Main uska naamm...

    in ur scale it wud be...

    Code:
    E |----------------------------------|
    B |---------6------------------------|
    G |--3---3------3----5--3---3--3p0---|
    D |----------------------------------|
    A |----------------------------------|
    E |----------------------------------|
         Par tumhe. likh na.hin pa.un...
    
    E |--------------------------------|
    B |--------------------------------|
    G |---0----3--3--5-----------------|
    D |--------------------------------|
    A |--------------------------------|
    E |--------------------------------|
          Main us.ka naamm...
    
    E |--------------------------------|
    B |--------------------------------|
    G |---3h4--3-----3h4h6---3---------|
    D |--------------------------------|
    A |--------------------------------|
    E |--------------------------------|
          Hai. ram.. haiiii. raamm
                     2nd (hai ramm.) i don remembr da tune.
     
  8. raj_aryan

    raj_aryan Moderator

    i am nt talking abt the poems.. am talking abt my tabs and chords...
     
  9. Abhijeetbasu

    Abhijeetbasu TABBER

  10. hanwant

    hanwant New Member

    Hey Raj done a good job. I tried on my guitar it sounds gr8. Send some more tabs which u can play on only one string.
     
  11. Subhro

    Subhro Argentina lost :"(

    the last part of his tabs r not in da right scale dude. if u find tht gr8 i suggest u play tht agn & find it out urself...
     

Share This Page