Green Day Tabs Y'all

Discussion in 'English Guitar Tabs - Submit or Request' started by GREENDAYGIRL, Nov 19, 2006.

  1. GREENDAYGIRL

    GREENDAYGIRL Banned

    If Any1 Wants One, Let Me Know
     
  2. .:SpY_GaMe:.

    .:SpY_GaMe:. New Member

  3. Toaster

    Toaster New Member

    u got "Holiday"?
     
  4. pulp_is

    pulp_is New Member

    green day plz,thx
     
  5. pulp_is

    pulp_is New Member

    actually boulevard , Jesus of suburbia & one yur favourite which yu feel sounds good on gtr:)
     
  6. CrYpTiC_angel

    CrYpTiC_angel Rebelle!

    haha, no point asking GREENDAYGIRL, he/she/it has been banned ages ago.

    Go to ultimate-guitar.com or jst google, u idiots.
     
  7. anudeepmathur

    anudeepmathur New Member

    i want stuff from the kerplunk album..can anyone help???
    i even want the brainstew & jaded tabs anyone to help???
     
  8. santanak

    santanak New Member

    yes i want guitar tabs for minority . boulevard. etc.
     
  9. nick_d_rock

    nick_d_rock New Member

    plzz give me boulevard tabs...plzzz

    if ne 1 can give me the tabs for greenday-boulevard of broken dreams..plzz do it
     
  10. anupjambhekar

    anupjambhekar New Member

    intro
    F let ring for 4 beats
    then
    F G# D# A# x2

    F G#
    I walk a lonely road
    D# A# F
    The only one I that have ever known
    G#
    Don't know were it goes
    D# A#
    But its home and I walk alone

    F G# D# A#
    |-----------------------------------|
    |--8/9-----13/11---8/9--------------|
    |-----------------------------------|
    |-----------------------------------|
    |-----------------------------------|
    |-----------------------------------|


    F G#
    I walk this empty street
    D# A# F
    On the boulevard of broken dreams
    G#
    Where the city sleeps
    D# A# F
    And I'm the only one and I walk alone

    f G# D# A#
    |-----------------------------------|
    |--8/9-----13/11---8/9--------------|
    |-----------------------------------|
    |-----------------------------------|
    |-----------------------------------|
    |-----------------------------------|

    A# F
    I walk alone I walk alone

    I walk alone I walk a- C#
    G# D# F C#
    My shadows the only one that walks beside me
    G# D# F C#
    My shallow hearts the only thing that's beating
    G# D# F C#
    Sometimes I wish someone out there will find me
    G# C c
    Till then I'll walk alone
    F G# D# A# F
    a ah a ah a ah a ah
    F G# D# A#
    a ah a ah a ah a

    F G#
    I'm walking down the line
    D# A# F
    That divides me somewhere in my mind
    G# D#
    On the border line of the edge
    A# F
    And were I walk alone

    f G# D# A#
    |-----------------------------------|
    |--8/9-----13/11---8/9--------------|
    |-----------------------------------|
    |-----------------------------------|
    |-----------------------------------|
    |-----------------------------------|

    F G# D#
    Read between the lines of what's
    A# F
    ****ed up and every things all right
    F G# D# A#
    Check my vital signs to know I'm still alive
    F
    And I walk alone
    f G# D# A#
    |-----------------------------------|
    |--8/9-----13/11---8/9--------------|
    |-----------------------------------|
    |-----------------------------------|
    |-----------------------------------|
    |-----------------------------------|

    I walk alone I walk alone

    I walk alone I walk a-

    G# D# F C#
    My shadows the only one that walks beside me
    G# D# F C#
    My shallow hearts the only thing that's beating
    G# D# F C#
    Sometimes I wish someone out there will find me
    G# C c
    Till then I'll walk alone
    F G# D# A# F
    a ah a ah a ah a ah
    F G# D# A#
    a ah a ah a ah a

    i walk alone i walk a-

    |-----------------------------------|
    |-----------------------------------|
    |--6-6-6-6---------8-8-8-8----------|
    |--6-6-6-6-6-6-6-6-8-8-8-8-3-3-3-3--|
    |--4-4-4-4-6-6-6-6-6-6-6-6-3-3-3-3--|
    |----------4-4-4-4---------1-1-1-1--|
    | | x2
    |-----------------------------------|
    |--6-----8/9-----13/11---8/9---9----|
    |-----------------------------------|
    |-----------------------------------|
    |-----------------------------------|
    |-----------------------------------|

    |-----------------------------------|
    |-----------------------------------|
    |--6-6-------------8-8-8-8----------|
    |--6-6-----6-6-----8-8-8-8-3-3-3-3--|
    |--4-4-----6-6-----6-6-6-6-3-3-3-3--|
    |----------4-4-------------1-1-1-1--|
    | |
    |-----------------------------------|
    |--6-----8/9-----13/11---8/9---9----|
    |-----------------------------------|
    |-----------------------------------|
    |-----------------------------------|
    |-----------------------------------|
    |
    |---------------------------------------------------|
    |---------------------------------------------------|
    |--6-6-------------5-5-5-5-5-5-5-5-5-5-5-5-5-5-5-5--|
    |--6-6-----6-6-----5-5-5-5-5-5-5-5-5-5-5-5-5-5-5-5--|
    |--4-4-----6-6-----3-3-3-3-3-3-3-3-3-3-3-3-3-3-3-3--|
    |----------4-4--------------------------------------|
    | |
    |---------------------------------------------------|
    |--6-----8/9----11/13-13-13-13-13-13-13-13-13-13-13-|
    |---------------------------------------------------|
    |---------------------------------------------------|
    |---------------------------------------------------|
    |---------------------------------------------------|


    F G#
    I walk this empty street
    D# A# F
    On the boulevard of broken dreams
    G#
    Where the city sleeps
    D# A#
    And I'm the only one and I walk a-

    G# D# F C#
    My shadows the only one that walks beside me
    G# D# F C#
    My shallow hearts the only thing that's beating
    G# D# F C#
    Sometimes I wish someone out there will find me
    G# C c
    Till then I'll walk alone
    |---------------------------------------------|
    |---------------------------------------------|
    |---------6--6-6-8--8-8-7--7-7----------------|
    |--3--3-3-6--6-6-8--8-8-7--7-7-6--6-6-2--2-2--| x3
    |--3--3-3-4--4-4-6--6-6-5--5-5-6--6-6-2--2-2--|
    |--1--1-1----------------------4--4-4-0--0-0--|
    |
    |---------------------------------------|
    |---------------------------------------|
    |---------6--6-6-8--8-8-7--7-7----------|
    |--3--3-3-6--6-6-8--8-8-7--7-7-6-6-2-2--|
    |--3--3-3-4--4-4-6--6-6-5--5-5-6-6-2-2--|
    |--1--1-1----------------------4-4-0-0--|

    rock on dude.... ;)
     
  11. fake-lover

    fake-lover New Member

    CAN ANYONE tell me da symbols 4 hammer on,slide n vibration
     
  12. ultrabot90

    ultrabot90 Like fishes need bicycles

    1. You copied that from the Robert Sears tab of the whole American Idiot album, http://www.ultimate-guitar.com/tabs/g/green_day/american_idiot_album_crd.htm . Ha.
    2. Its Fm, not F, its an error which you copied fromt that tab :rule:
     
  13. n3m3s1s

    n3m3s1s New Member

    OWNED!! HAHA,Try to come up with your own tabs man,FX,Tab Gens are just there as a side..not as a main :p
     

Share This Page