Fulon Se Jo Khusbu aaye, Ajooba Hai (COMPLETE), From JEANS

Discussion in 'Hindi Guitar Tabs - Submit or Request' started by shantanukr, Jul 25, 2005.

  1. shantanukr

    shantanukr yEh DiL mAanGe m0rE

    Hi IGT friends. This romantic number from the movie JEANS is sure to Strum ur Strings. Try this out and do forward me ur comments... Bye :beer:

    ***************************************************
    Song Name : Fulon se jo khusbu aye, Ajooba hai
    Movie : JEANS

    Tabbed By : S.h.a.n.t.a.n.u. .K.r.
    [email protected]
    ***************************************************

    E--7-7-7--------------------------
    B--------10-10-8--7-10--8-8-8-----
    G------------------------------7--

    Foolon se jo.. khusbu aye, ajooba hai
    titli jo saare rang laye, ajooba hai..

    E--8-8-8-7-----8-8--8-10-8-7-------
    B----------8-8---------------------
    G----------------------------------

    baasuri ka ye sangeet, ajooba hai
    koyal jo gaati hai, yeh be ajooba hai ..

    E---------------------------------------7--
    B-----8-10-10-10-10-10--10-10--10-10-8-----
    G--7---------------------------------------

    hain ye ajoobe lekin, ek aur ajooba hai ..

    MELODY

    E-----------
    B--8-8-8----
    G-----------

    Dharti se ,

    E-----------
    B-10-10-----
    G--------11-

    amber se,
    parwat se, sagar se,

    E-------------------------
    B--8-8--8-10-10----8-8-8--
    G---------------11--------

    humne suna pyar ajooba hai

    STANZA


    E------------------------------------
    B--8-12-12-12-12-12--12-13-13-13-12--
    G------------------------------------

    Daali mein mahak hoti hi nahi
    kaliyon mein mahak a jaati hai

    E--------------------------
    B--10-13-12-10-------------
    G-------------12-11-14-----

    yeh bhi ajooba hi hai ..

    REPAEAT FROM STARTING ..................
     
  2. komal29

    komal29 New Member

    oh come on! why dont we have chords posted for this wonderful number?
     
  3. 143avi

    143avi New Member

    I Think Its F,Bb, & C...Bt Not Sure...plz Sumone Post The Chords...
     

Share This Page