Flipsyde Someday Solo

Discussion in 'English Guitar Tabs - Submit or Request' started by limaj_daas, Jan 16, 2009.

  1. limaj_daas

    limaj_daas Guitar Pro Maniac

    Ok, I know this has been tabbed but some of the faster parts, well i disagreed with them. I made a guitar pro of it so u guys can check that out too. Oh, and here's a Youtube Vid of me playing it:

    http://www.youtube.com/watch?v=CPiJ0i6FMTU


    Please comment!


    H. E. T T S S S S E. T T S S S S E. T T S S S S S S S S S S S S E. T T
    E||-----------------------|----------------------------------|--------------0-1-0---------------|
    B||-----------------------|----------1---------------3-------|----------1-3-------3-1-0-0---0-0-|
    G||-------------------2-2-|--2-1-2-4-----2-2-2-1-2-4-----2-2-|--2-1-2-4-------------------------|
    D||-----------------------|----------------------------------|----------------------------------|
    A||-----------------------|----------------------------------|----------------------------------|
    E||-----------------------|----------------------------------|----------------------------------|


    |---3---| |---3---|
    S S S S S S S S S S S S S E. E S S E E E E E E E. T T
    --------------------0-1-0-1-0---|--5--3s-5-8--10--12--12--12--12--12---5-5-|
    --0-1-0---0-1-0-1-3-------------|------------------------------------------|
    --------2-----------------------|------------------------------------------|
    --------------------------------|------------------------------------------|
    --------------------------------|------------------------------------------|
    --------------------------------|------------------------------------------|


    S S S S S S S S S S S S S S S S
    --5-8-7-8-5-8-7-8-7-10-8-10-7-10-8-10-|
    --------------------------------------|
    --------------------------------------|
    --------------------------------------|
    --------------------------------------|
    --------------------------------------|


    |--3--| |--3--| |--3--| |--3--|
    S S S S S S S S T T T T T T T T T T T T E. T T
    --8-12-10-12-8-12-10-12-13-13-13-13-13-13-13-13-13-13-13-13-12------12-|
    -----------------------------------------------------------------10----|
    -----------------------------------------------------------------------|
    -----------------------------------------------------------------------|
    -----------------------------------------------------------------------|
    -----------------------------------------------------------------------|


    S S S S S E T T S S S S S E T T
    --15-13-12-10-13-12-----12-15-13-12-10-13-12-----12-|
    ---------------------10-----------------------10----|
    ----------------------------------------------------|
    ----------------------------------------------------|
    ----------------------------------------------------|
    ----------------------------------------------------|


    S S S S S S S S T T T T T T T T T T T T T T T T W
    --15-13-12-10-13-12-10-8-13-12-10-8-12-10-8-7-10-8-7-5-8-7-5-4-|--5----------------||
    ---------------------------------------------------------------|-------------------||
    ---------------------------------------------------------------|-------------------||
    ---------------------------------------------------------------|-------------------||
    ---------------------------------------------------------------|-------------------||
    ---------------------------------------------------------------|-------------------||
     

    Attached Files:

  2. blissStrummer

    blissStrummer New Member

    Awweeeeeeeeeesssssoooooommmmeeeeeeeeeeeeeee

    Dude that is awesssssssssoooooooommmmmmmmmmmeeeeeeeeeeeeeeeeeeeeeeeeeeeeee
    M a newbie so mebbe m overdoing it but hats off man superb
     
  3. Arpandholi

    Arpandholi New Member

    amazing....
     
  4. Arpandholi

    Arpandholi New Member

    oh quick ?? wats the E n T n S stand for?
     
  5. limaj_daas

    limaj_daas Guitar Pro Maniac

    Eights and Thirteents and Sixteenths. U know, beats.
     
  6. rajiv.rajiv

    rajiv.rajiv New Member

    I saw your video at youtube....That was cooooollllll man specially the last part. Really awesome...But what is that *.gp5 format file in the attachment??? Is it guitar pro file??? How to open it....I mean what software is required to open it???? And about the last part I would like to know whether they are tied notes??? Please reply me.....
    Thanks
    Rajiv
    website: http://kooltechz.blogspot.com
     
  7. limaj_daas

    limaj_daas Guitar Pro Maniac

    Yeah, it's Guitar Pro. Google it. What do u mean by tied notes? Like hammer ons and stuff? If so then nah I picked it all but i suppose u can do legatos there too, it wont be as articulate on acoustic guitars tho.
     
  8. rmsprs

    rmsprs New Member

    wow amazing tabs....appreciation from bottom of my heart. and you did a great job too. very fast but very precise. keep the good work coming..
     

Share This Page