fav vj joyalukas ad by lion

Discussion in 'Tamil Guitar Tabs - Submit or Request' started by sathish lion, Nov 3, 2013.

  1. sathish lion

    sathish lion New Member

    e-----------7---7-----9---5---
    b----5----5--------------------

    e-----------7---7-----9---5---
    b--7-5----5--------------------


    e-----------------------
    b---0-------7---8---7

    e-----------------------
    b---0-------7---8---7

    e----------------------------
    b---0-------7---8---7--7-----5


    try tiz .. and correct my mistake ...

    by lion ...
     

Share This Page