Fanaa: Chand Sifarish(Subhaan Allah) Tabs + Chords Submitted!!!!Fast Submission Again

Discussion in 'Hindi Guitar Tabs - Submit or Request' started by sumantmodak, Apr 13, 2006.

  1. sumantmodak

    sumantmodak Musically Yours !!!

    hey Guays,

    Sumant Here Again, before even u could even have mp3's of this song!!!
    here comes the tab + Chords of this beautiful song from Fanaa ! ! ! !
    there is some talk going on i being very fast ! well i guess yes i am !!! !!! :))

    Rep my work if you like it :)) thanks
    (I guess I Deserve some this time HA HA JUST KIDDIN) :))


    Song: Chand Sifarish Joh Karta Humari
    Movie: Fanaa

    Tabbed By,
    Musically Yours , Sumant A Modak



    Intro Part !!!! !!!!

    hmm hmm hmm hmmm la la la
    hey hey hey hey ah ha


    subhaan allaah subhaan allah subhaan allah
    |-----1-0-1--0-1-3-3----------------------------------------------------------------
    |----------------------------------------------------------------------------
    |-2---------------------------------------------------------------------------


    subhaan allaah subhaan allah subhaan allah
    |----0-----0-----1---0-------------------------------------------------------
    |-------3-----3---------3----------------------------------------------------
    |-2--------------------------------------------------------------------------

    valle valle
    |-6--h5--6--h5--------------------------------------------------------------
    |---------------------------------------------------------------------------
    valle valle
    valle valle

    Whistle part Tune (Its Beautiful) play it as many times as possible for ur loved one ! !
    |----------------------------------------------------------------------------
    |-3-3-6-6-5-5-5-5----3-5-1-3-5-----------------------------------------------
    |----------------------------------------------------------------------------

    |----------------------------------------------------------------------------
    |-3-3-5-5-3-3-3-3---1-3------1-3---------------------------------------------
    |-------------------------2--------------------------------------------------



    chaand sifarish jo karta hamari deta woh tumko bata
    |---------------------------------------------------------------------------
    |-6-5-3-6-5-3-5-3-1-3-5-----3--6-5-3-6-5-3----------------------------------
    |---------------------------------------------------------------------------

    sharm-o-haya pe parde gira ke karni hain hamko khata
    |----------------------------------------------------------------------------
    |-6-5-3-6-5-3-5-3-1-3-5-----3--6-5-3-6-5-3----------------------------------
    |----------------------------------------------------------------------------

    zidd hain ab toh hain khud ko mitana hona hain tujhmein fanaa
    |3-3-3-5-6-5-3--1-0-0--------0-0-0-0-5-3-0-----------------------------------
    |----------------------------------------------------------------------------
    |----------------------------------------------------------------------------

    chaand sifarish jo karta hamari deta woh tumko bata
    |---------------------------------------------------------------------------
    |-6-5-3-6-5-3-5-3-1-3-5-----3--6-5-3-6-5-3----------------------------------
    |---------------------------------------------------------------------------

    sharm-o-haya pe parde gira ke karni hain hamko khata
    |---------------------------------------------------------------------------
    |-6-5-3-6-5-3-5-3-1-3-5-----3--6-5-3-6-5-3----------------------------------
    |---------------------------------------------------------------------------

    Beautiful Whistle part Again Play it Again & Again !!!!!!
    |----------------------------------------------------------------------------
    |-3-3-6-6-5-5-5-5----3-5-1-3-5-----------------------------------------------
    |----------------------------------------------------------------------------

    |----------------------------------------------------------------------------
    |-3-3-5-5-3-3-3-3---1-3------1-3---------------------------------------------
    |-------------------------2--------------------------------------------------


    valle valle
    |-6--h6--6--h6--------------------------------------------------------------
    |---------------------------------------------------------------------------
    valle valle
    Valle Valle



    Stanza 1 !!!! !!!!

    teri adaa bhi hain jhonke wali chhu ke gujar jaane de
    |---------------------------------------------------------------------------
    |-5-6-8-6-6-6-6-5-5-5-5-5-5------5-6-5-3-5-6-5------------------------------
    |---------------------------------------------------------------------------


    teri lachak hain ke jaise daali dil mein utar jaane de
    |---------------------------------------------------------------------------
    |-5-6-8-6-6-6-6-5-5-5-5-5-5------5-6-5-3-5-6-5------------------------------
    |---------------------------------------------------------------------------


    aaja baahon mein karke bahana hona hain tujhmein fanaa
    |3-3-3-5-6-5-3--1-0-0--------0-0-0-0-5-3-1-0---------------------------------
    |----------------------------------------------------------------------------
    |----------------------------------------------------------------------------

    chaand sifarish jo karta hamari deta woh tumko bata
    |---------------------------------------------------------------------------
    |-6-5-3-6-5-3-5-3-1-3-5-----3--6-5-3-6-5-3----------------------------------
    |---------------------------------------------------------------------------
    sharm-o-haya pe parde gira ke karni hain hamko khata
    |---------------------------------------------------------------------------
    |-6-5-3-6-5-3-5-3-1-3-5-----3--6-5-3-6-5-3----------------------------------
    |---------------------------------------------------------------------------


    { Extra Musical Part } Played On Diffrent Instrument
    I figured Out Tabla Part of it , if you have tabla player u can use it

    Dha Tit Dha , dha Tit Dha (4) Times

    {dha dhin dhin dha
    dha dhin dhin dha
    dha tin tin ta
    ta dhin dhin dha } :- basically Trital palyed at a very fast pace, (Dha) is replaced by (Tirkit) in alternated rounds
    Enjoyyy

    while in subhn allah tabla plays like : - dha ge nati nak dhin , dhage nati nak dhin (Kajra Taal) in Low Pace

    }

    :)

    Stanza 2 (Play Exactly Like Stanza 1) :)


    subhaan allaah subhaan allah subhaan allah
    subhaan allaah subhaan allah subhaan allah

    hain jo iraaden bata doon tumko sharma hi jaaogi tum
    dhadakanen jo suna doon tumko ghabraa hi jaaogi tum
    hamko aata nahi hain chhupana hona hain tujhmein fanaa

    chaand sifarish jo karta hamari deta woh tumko bata
    sharm-o-haya pe parde gira ke karni hain hamko khata
    zidd hain ab toh hain khud ko mitana hona hain tujhmein fanaa




    Chords For Song: Chand Sifarish Jo Karta !!!! !!!! :)
    This song Is Played On 3 chords :- Dm,C,F


    Dm....................................C
    hmm hmm hmm hmmm la la la
    Dm...........................C
    hey hey hey hey ah ha
    Dm....................C.....................Dm
    subhaan allaah subhaan allah subhaan allah
    Dm....................C.....................Dm
    subhaan allaah subhaan allah subhaan allah
    Dm
    valle valle
    valle valle
    valle valle


    Whistle:- Dm.....................C..................Dm

    Dm.................................C.................................Dm
    chaand sifarish jo karta hamari deta woh tumko bata
    Dm.................................C.................................D
    sharm-o-haya pe parde gira ke karni hain hamko khata
    F................................C.....................................Dm
    zidd hain ab toh hain khud ko mitana hona hain tujhmein fanaa
    Dm.................................C.................................Dm
    chaand sifarish jo karta hamari deta woh tumko bata
    Dm.................................C.................................Dm
    sharm-o-haya pe parde gira ke karni hain hamko khata

    Stanza 1.

    Dm
    valle valle
    valle valle
    Dm.................................C.................................Dm
    teri adaa bhi hain jhonke wali chhu ke gujar jaane de
    Dm.................................C.................................Dm
    teri lachak hain ke jaise daali dil mein utar jaane d
    F................................C.....................................Dm
    aaja baahon mein karke bahana hona hain tujhmein fanaa
    Dm.................................C.................................Dm
    chaand sifarish jo karta hamari deta woh tumko bata
    Dm.................................C.................................Dm
    sharm-o-haya pe parde gira ke karni hain hamko khata


    Stanza 2 ( Play Exactly Like First Stanza) :))

    subhaan allaah subhaan allah subhaan allah
    subhaan allaah subhaan allah subhaan allah
    hain jo iraaden bata doon tumko sharma hi jaaogi tum
    dhadakanen jo suna doon tumko ghabraa hi jaaogi tum
    hamko aata nahi hain chhupana hona hain tujhmein fanaa
    chaand sifarish jo karta hamari deta woh tumko bata
    sharm-o-haya pe parde gira ke karni hain hamko khata
    zidd hain ab toh hain khud ko mitana hona hain tujhmein fanaa

    Comments Suggestions , & Criticisms are welcome with open heart !!!! !!!! :))
    Thanks For Taking time for reading time for my post , i hope u will find my work useful !!!!! :))

    Thanks ! Download Strumming Pattern Too !!!! For Further Help On Playing
     

    Attached Files:

  2. sumantmodak

    sumantmodak Musically Yours !!!

    Fannaaa Song !!! & No Replies So Far !!!! !!!! :) Come On Guays
     
    himika9 likes this.
  3. vini

    vini Repeat Offender

    man..u've really worked hard!!
    thanx a lot for sharing..but i've just heard this song in promos so for me its insufficient to be able to give u feedback..will check soon and reply!

    Reps anyway :)
     
  4. sumantmodak

    sumantmodak Musically Yours !!!

    Thanks For Appriciation

    its a great to see u vini in my post !!!! :) thanks for appriciation. i told everybody that i will post the tabs + n chords before even all u get the hands on the songs ! and i fulfilled my promise !! Thanks Again !
    7 latest song tabs+chords submission in 3 days and you can look for more for sure in coming days !!!! !!!! u all guays helped me learning guitar upside down without any classes any help and i will certainly now try to add value to our IGT forum as much as i can from heart !!!! !!!!

    Thanks Again !!!!!!!!
     
  5. Bandbaaja

    Bandbaaja Pronounced Band Baaaa Ja

    Good Post
    Right scale.
    Will check the chords and post comments soon...

    A small reccomendation
    For the guitar part in the intro (the arabic sounding guitar)
    Play the following tabs
    E -----------------
    B -----------------
    G ---5P3-2---5P3-2-
    D -0---------------
    A -----------------
    E -----------------
     
  6. sumantmodak

    sumantmodak Musically Yours !!!

    nice to see you bandbaja on my post ! thanks for recommedation. please check the tabs n chords and give more suggestions
    i would be really happy if you visit some other posts of mine also and trying them and giving suggestions

    these are the links that i posted recently in 3-4 days

    1. Himesh Reshmaiyan: Humko Deewana Kar Gaye (Tabs + Chords) Unrelased song
    http://www.indianguitartabs.com/showthread.php?t=20751

    2. Gangster: Tu hi meri shab hai (Tabs + Chords)
    http://www.indianguitartabs.com/showthread.php?t=20770

    3. Gangster: Bheegi Bheegi Si
    http://www.indianguitartabs.com/showthread.php?t=20788

    4. 36 China Town: Aa Aa Aashiqui Mein Meri
    http://www.indianguitartabs.com/showthread.php?t=20794

    5. Ankahee: Ek Pal Ke Liye
    http://www.indianguitartabs.com/showthread.php?t=20829

    6. Fanaa: Chand Sifarish Hai Karta (Subhaan Allah)
    http://www.indianguitartabs.com/showthread.php?t=20845

    7. Gangster: Lamha Lamha
    http://www.indianguitartabs.com/showthread.php?t=20850
     
  7. vintage

    vintage New Member

    Great stuff mate! If possible could you post the strumming pattern. Its quite tough!
     
  8. sumantmodak

    sumantmodak Musically Yours !!!

    Strumming Pattern Submitted !!!! :) :)

    Musically Yours
    Sumant Modak !!!! :)
     
  9. Bandbaaja

    Bandbaaja Pronounced Band Baaaa Ja

    HEY!!!!
    Thats a lot of new songs that you have worked sumant!!!!
    Great work, BOSS I havent worked out a single song from your list!!!
    I feel outdated!!!
    Congrats man, its good to see your posts, you know it makes life a bit easier for a lot of people including me!!!!

    Will surely post feedback if i get the motive (or some compulsion from my band) to work out any of those songs!!!

    Great going!!!
     
  10. vintage

    vintage New Member

    thx

    Thanks for the pattern :)
     
  11. vintage

    vintage New Member

    Fantastic work sir .. Is it possible to post the interlude as well? the pat before the 2nd time Subhan allah is sung..?
     
  12. bathroomsinger

    bathroomsinger New Member

    Awesome chords for a wonderful wonderful song. Very good work.
     
  13. sarang_cool

    sarang_cool New Member

    Nice chords dude....I found following correction...you can try these out...and let me know....:beer:


    Dm.................................C.............. ......F................Dm
    chaand sifarish jo karta hamari deta woh tumko bata
    Dm.................................C.............. ......F................D
    sharm-o-haya pe parde gira ke karni hain hamko khata
    F................................G.................Bb.. ....................A....
    zidd hain ab toh hain khud ko mitana hona hain tujhmein fanaa

    and again in the stanza..

    F........................G...................Bb........ ..............A.......
    aaja baahon mein karke bahana hona hain tujhmein fanaa
     
  14. valentino600

    valentino600 Raj Aryan

    dude thanks a lot for the srtumming pattern man ...it helps a lot ...specially for learners like me....keep up the good work man...
     
  15. Bandbaaja

    Bandbaaja Pronounced Band Baaaa Ja

    i havent worked out the chords yet
    but a small correction in the Subhanallah part

    the second time of Subhanallah starts with a Bb and not Dm
     
  16. Sharmontime

    Sharmontime New Member

    Awesome job DUDE!!!
    ALL THE BEST FOR YOUR EXAMS!!!
     
  17. metal_fan69

    metal_fan69 To Live Is To Die

    I hav not tried it yet.. but looks good
     
  18. zee

    zee New Member

    mmmmmmmmmmmmmmmmmmmmmmmmmmmmmmmmmmmmmmmmmmmmmmmmm
    mmmmmmmmmmmmmmmmmmmmmmmmmmmmmmmmmmmmmmmmmmmmmmmmm
    mmmmmmmmmmmmmmmmmmmmmmmmmmmmmmmmmmmmmmmmmmmmmmmmm
    mmmmmmmmmmmmmmmmmmmmmmmmmmmmmmmmmmmmmmmmmmmmmmmmmm
    mmmmmmmmmmmmmmmmmmmmmmmmmmmmmmmmmmmmmmmmmmmmmmmmm
    mmmmmmmmmmmmmmmmmmmmmmmmmmmmmmmmmmmmmmmmmmmmmm
    mmmmmmmmmmmmmmmmmmmmmmmmmmmmmmmmmmmmmmm
    mmmmmmmmmmmmmmmmmmmmmm
    mmmmmmmmmmmmmm
    mmmmmmmmmm
    mmm mind blowing jobs man a bbbbbbbbbiiiiiigggggggggg hug to all the guys
     
  19. Nik_six_stringz

    Nik_six_stringz New Member

  20. guitarwithyash

    guitarwithyash New Member

    RE: fanaa - chand sifarish

    Whistle part Tune
    |----------------------------------------------------------------------------
    |-3-3-6-6-5-5-5-5----3-5-1-3-5-----------------------------------------------
    |----------------------------------------------------------------------------


    if i will paly the whistle part like this then how it is different from the previous one?????
    Whistle part Tune

    |-----1-1-0-0-0-0------0-----0-----------------------------------------------
    |-3-3----------------3---1-3-------------------------------------------------
    |----------------------------------------------------------------------------
    actually i m beginner and i m finding difficulties to move my fingers up to 5 and 6th fret so fastly.... and i need to correct the tabs ???? bcs some where at last like "Deta wo tumko bata" here it is not as much perfect ple guide me
    pls reply
     

Share This Page