Eye Of The Tiger - Survivor Guitar chords & tabs

Discussion in 'Hindi Guitar Tabs - Submit or Request' started by arti1909, Jan 3, 2013.

  1. arti1909

    arti1909 New Member

    [h=1]Eye Of The Tiger - Survivor Guitar chords & tabs[/h]

    Eye Of The Tiger - Survivor



    Purchase Guitar online at lowest prices at
    Buy Guitar from us | Jazzelinn Guitars - Learn to fly on guitar
    To check Prices of Guitar, visit
    http://jazzelinnguitars.com/files/documents/Jazzelinn-Guitars-price-list.pdf
    To learn guitar, visit
    Registration form - Guitar Training | Jazzelinn Guitars - Learn to fly on guitar
    To figure out Tabs and Notes, refer
    Tutorial for notes on Guitar Fretboard | Jazzelinn Guitars - Learn to fly on guitar


    Riff 1

    C5
    e-----------------------------------|
    B-----------------------------------|
    G-----------------------------------|
    D-----------------------------------|
    A--3-3-3-3-3-3-3-3-3-3-3-3-3-3-3-3--|
    E-----------------------------------|

    riff 2
    C5 C5 Bb5 C5 C5 Bb5 C5 C5 G5 Ab5
    e----------------------|-------------------|---------------------|
    B----------------------|-------------------|---------------------|
    G--5--------5---3---5--|--------5---3---5--|--------5------------|
    D--5--------5---3---5--|--------5---3---5--|--------5---5---6~~~~|
    A--3--------3---1---3--|---^----3---1---3--|--------3---5---6~~~~|
    E----------------------|--^^^--------------|------------3---4~~~~|


    riff 3
    C5 Cm7 Bb/C Cm7 Cm7 Bb/C Cm7 C5 G5 Ab5
    e----------------------------|--------------------|-----------------|
    B---------x-x-8---6---x-8~~~~|----8---6----x-8~~~~|-----------------|
    G--5~~----x-x-8---7---x-8~~~~|----8---7----x-8~~~~|--5--------------|
    D--5~~----x-x-8---8---x-8~~~~|----8---8----x-8~~~~|--5---5---x-6~~~~|
    A--3~~-----------------------|--------------------|--3---5---x-6~~~~|
    E----------------------------|--------------------|------3---x-4~~~~|


    riff 4
    C5
    e-----------|
    B-----------|
    G--x-x--5/--|
    D--x-x--5/--|
    A--x-x--3/--|
    E-----------|



    Intro
    (riff 1) – 4 times
    (riff 2) – 2 times w/(riff 1)
    (riff 3) - 2 times w/(riff 1)
    (riff 4)



    Cm Ab
    Risin' up… back on the street.
    Bb Cm
    Did my time… took my chances.
    Cm Ab
    Went the distance now I'm back on my feet.
    Bb Cm
    Just a man… and his will to survive.

    Verse 2
    So many times… it happens too fast.
    You change your passion for glo…ry.
    Don't lose your grip… on the dreams of the past.
    You must fight… just to keep them alive.

    Chorus
    Bb Cm Fm Cm Bb
    It's the… eye of the tiger… it's the thrill of the fight.
    Fm Cm Bb
    Risin' up… to the challenge of our ri…val.
    Fm Cm Bb
    And the last… known survivor stalks his prey in the night.
    Fm Gm Ab Cm (riff 1)
    And he's watchin' us all in the eye…… of the ti……ger.

    Verse 3
    Face to face… out in the heat.
    Hangin' tough… stayin' hun…gry.
    They stack the odds… 'til we take to the street.
    For we kill… with the skill… to survive.

    Repeat Chorus

    Verse 4
    Risin' up… straight to the top.
    Have the guts… got the glo…ry.
    Went the distance now I'm not gonna stop.
    Just a man… and his will to survive.

    Repeat Chorus

    Outro w/(riff 1) – 4 times on each line

    (riff 2)
    The eye of the ti…ger……
    (riff 2)
    The eye of the ti…ger……
    (riff 3)
    The eye of the ti…ger……
    (riff 3)
    The eye of the ti…ger……
    (riff 3)
    fadeout>
    (riff 3)




    Chord Chart
    Ab Ab5 Bb/C -Bb- Bb5 Cm C5 Cm7 Fm Gm G5
    e--4--------------1----6---------3--------------1----3-------|
    B--4---------6----3----6---------4---------8----1----3-------|
    G--5---------7----3-or-7----3----5----5----8----1----3-------|
    D--6----6----8----3----8----3----5----5----8----2----5----5--|
    A--6----6---------1----8----1----4----3---------2----5----5--|
    E--4----4--------------6------------------------1----3----3--|
     

Share This Page