Eminem Tabs

Discussion in 'English Guitar Tabs - Submit or Request' started by I_Me_Myself, Apr 8, 2005.

  1. I_Me_Myself

    I_Me_Myself New Member

    EMINEM - LOSE YOURSELF
    By: I Me & Myself

    INTRO (PLAYED ON PIANO BUT TRANSCRIBED FOR GUITAR)
    E---5-----5--3-----3--5-----5-----8-6-5-3--5-----5--3-----3--5---------------------|
    B-----6--------5--------6--------------------6--------5--------6-----3-----3--1----|
    G-------7--------5--------7--------------------7--------5--------7-----3--------2--|
    Carries on next line
    D------------------------------------------------------------------------5--------3|
    A----------------------------------------------------------------------------------|
    E----------------------------------------------------------------------------------|

    E--------------------------|
    B--------------------------|
    G---3h2-0---2-3-6----------|END OF PIANO INTRO
    D--------------------------|
    A--------------------------|
    E-------------------5/7/9--|

    GUITAR (VERSE + INTRO)
    E---x-x-x-x-x-x-x-x-x-x-x-x-x-x-x-x-x-x-x-x-x-x-x-x------|
    B---x-x-x-x-x-x-x-x-x-x-x-x-x-x-x-x-x-x-x-x-x-x-x-x------|
    G---x-x-x-x-x-x-x-x-x-x-x-x-x-x-x-x-x-x-x-x-x-x-x-x------|Try palm muting this as much as you can
    D---7-7-7-7-7-7-7-7-7-7-7-----8-8-8-8-8-8-8-8-8-8-8------|
    A---5-5-5-5-5-5-5-5-5-5-5-5 5-5-5-5-5-5-5-5-5-5-5 5------|
    E---x-x-x-x-x-x-x-x-x-x-x-x-x-x-x-x-x-x-x-x-x-x-x-x------|

    By: I Me Myself
     
  2. __DiStUrBeD__

    __DiStUrBeD__ _(¯`·._ÇrãÇKhËäD_.·´¯)_

    Bro nice work...
     
  3. __DiStUrBeD__

    __DiStUrBeD__ _(¯`·._ÇrãÇKhËäD_.·´¯)_

  4. raj_aryan

    raj_aryan Moderator

  5. raj_aryan

    raj_aryan Moderator

    chk out these :

    Mxtabs [http://www.mxtabs.net]
    standard tuning

    intro
    |-5------5---3-----3---5-----------8--6--5---3-----|
    |---6----------5---------6-------------------------|
    |-----7----------5---------7-----------------------| [2x]
    |--------------------------------------------------|
    |--------------------------------------------------|
    |--------------------------------------------------|

    |-5-----5----3-----3---5----------------------------------------|
    |---6----------5---------6-------3------3--1--1--------------2--|
    |-----7----------5---------7-------3--0---------2------2--3-----|
    |-------------------------------------------------3-------------|
    |---------------------------------------------------------------|
    |---------------------------------------------------------------|

    Verse
    |-----------------------------|
    |-----------------------------|
    |-----------------------------|
    |--7777-xx-77-8888-xx-88-5-7--|
    |--5555-55-55-5555-55-55-5-5--|
    |-----------------------------|

    Intro to verse ; verse to chorus
    |------------------------|
    |------------------------|
    |------------------------|
    |---8--5--7-----8--5--7--|
    |---5--5--5-----5--5--5--|
    |------------------------|

    Chorus
    |---------------------------------|
    |---------------------------------|
    |---------------------------------|
    |--7777-xx-77-8888-10101010-5--7--|
    |--5555-55-55-5555-5-5-5-5--5--5--|
    |---------------------------------|

    site : http://www.mxtabs.net/tab_versions.php?path=Guitar,e,462,Eminem,Lose+Yourself-acoustic,92341
     
  6. I_Me_Myself

    I_Me_Myself New Member

    Thanks Guyz...I m a new Member of this site...
    And i hope that i will learn more through this site..
     

Share This Page