@## Dooba Dooba by SilkRoute ## - Chords + Tabs + Recording @Kunal

Discussion in 'Hindi Guitar Tabs - Submit or Request' started by kunals83, May 24, 2009.

  1. kunals83

    kunals83 New Member


    Song: Dooba Dooba
    Band: Silk-Route
    Played on: Yamaha F210 Acoustic (with Pickup)
    Drums & Effects: Digi RP350 Processor
    By, Kunal Srivastava

    Recording link:

    http://www.esnips.com/doc/6d7a08ec-5d59-4f2f-bc69-9477211bbc06/DoobaDooba---OverrDrive



    Let' start playing ............. :)

    Chords used:
    **********

    G - 320033
    C - 032010
    D - xx0232
    Dsus4 - xx0233
    Am - x02210
    A - x02220

    Intro part:
    ********

    [G]........................[C]........[G]

    |-----3-3----3-3------0-0---3--------
    |-----3-3----3-3------1-1---3--------
    |-----0-0----0-0------0-0---0-------- x 2
    |--0------0------0--3-------0--------
    |--2------2------2--2-------2--------
    |--3------3------3--0-------3--------


    [G]........................[C]........[G]

    |-----3-3----3-3------0-0--3--3--3--
    |-----3-3----3-3------1-1--3--3--3--
    |-----0-0----0-0------0-0--0--0--0-- x X
    |--0------0------0--3------0--0--0--
    |--2------2------2--2------2--2--2--
    |--3------3------3--0------3--3--3--



    Vocals:
    *****

    [G]Dooba dooba rehta hoon, [C]aankhon mein [G]teri

    |----------------------------
    |------7----7-7--------------
    |--7-9---9------9--7---------
    |---------------------9-9-7-7-
    |----------------------------
    |----------------------------



    [G]Deewana ban gaya hoon main [C]chaahat me [G]teri

    |----------------------------
    |------7----7-7--------------
    |--7-9---9------9--7-----7-7--
    |---------------------9-9-----
    |----------------------------
    |----------------------------


    [G]Dooba dooba rehtaaaaaaa hoon, [C]aankhon mein [G]teri

    |------------------------------
    |------7----10-10-7------------
    |--7-9---9-----------7----------
    |----------------------9-9-7-7--
    |------------------------------
    |------------------------------


    [G]Deewana ban gaya hoon main [C]chaahat me [G]teri

    |----------------------------
    |------7----7-7--------------
    |--7-9---9------9--7------7-7--
    |---------------------9-9-----
    |----------------------------
    |----------------------------



    [G]Ab din [C]guzarte [D]na[Dsus4]hin [D]Ratein [C]kat-ti [D]na[Dsus4]hin

    |------------------------------
    |------------------------------
    |--7-7--------7-7--7--------7-7-
    |------7-9--9--------7-9--9----
    |------------------------------
    |------------------------------


    [D]Teri [C]tasvir [D]se ba[Dsus4]at [C]ban-ti [D]na[Dsus4]hin

    |------------------------------
    |------------------------------
    |-----------7-7--7--------7-7---
    |--7-7-9--9--------7-9--9------
    |------------------------------
    |------------------------------


    [G]Aa-ja

    |------------------------------
    |----7-7-----------------------
    |--9-----7---------------------
    |------------------------------
    |------------------------------
    |------------------------------


    [G]Koi jaane na ,Pehchaane na [C]Yeh hua kaise

    |-----------------------------------------
    |--10-8--7-8-7~---10-10--7---7------------
    |----------------------------9--------7s9--
    |-------------------------------7-9-9------
    |-----------------------------------------
    |-----------------------------------------



    [Am]Tum [C]aagaye [A]kwabon mein [D]aise

    |--------------------------
    |-----------8-8--7-10-10~-
    |------9-9-----------------
    |--7-9---------------------
    |--------------------------
    |--------------------------



    [C]Bewa[D]fa[Dsus4]... [D]sun oh [C]bewa[D]fa...

    |---------------------------
    |---------------------------
    |----7-7--------7-7------7-7
    |--9------9-7-9------9-9----
    |---------------------------
    |---------------------------


    [G]na jaa

    |------------------------------
    |----7-7-----------------------
    |--9-----7---------------------
    |------------------------------
    |------------------------------
    |------------------------------



    @All: Please comments, doubts, suggestions, improvements..anything are welcomed :)

    Hope you all enjoyed it !!! will post more songs soon.. Thanks.
     
  2. the lost world

    the lost world New Member

    nice yaar, thanks
     
  3. pingoo

    pingoo New Member

    thanks . i was looking for this
     

Share This Page