Download IGT Android App Download IGT Android App

Dil to pagal hai Title Track

Discussion in 'Hindi Guitar Tabs - Submit or Request' started by VisOrchestraGrp, Nov 12, 2007.

Download IGT Android App Download IGT Android App
  1. VisOrchestraGrp

    VisOrchestraGrp New Member

    Download IGT Android App REQ. BY - Sanwal_riz

    Movie - Dil to pagal hai
    Singer - Udit narayan & Lata mangeshkar

    GUITAR -
    G |------------2-1-------------2-1----------
    D |--4-----4--------4------4----------------
    A |-----4---------------4-------------------

    HUMMING -
    B |---------3-2-2---------7-5--------------------
    G |-----2----------2-4-6-------6-----------------
    D |--4--------------------------------------------

    B |---------3-2-2--------------------------------
    G |-----2----------2-4-6-9-----------------------
    D |--4-----------------------6-------------------

    B |---------3-2-2---------7-5--------------------
    G |-----2----------2-4-6-------6-----------------
    D |--4--------------------------------------------

    B |---------3-2-2---------------------------------
    G |-----2----------2-4-6-4-2-1--2----------------
    D |--4--------------------------------4-------------

    Dil to pagal hai dil deewana hai
    G |--2-1-----1-----2-1-----1---------------------
    D |-------4-----2-------4-----4------------------

    Dil to pagal hai dil deewana hai
    G |--2-1------------2-1-----1---------------------
    D |-------4--6-4-2-------4-----4------------------

    RUN -
    B |--2-3-2------------------
    G |---------4-2-1-----------
    D |----------------4--------

    THEN PLAY -
    A |--0----- & F#m CHORD F#m CHORD F#m CHORD F#m CHORD
    PLAY THIS LINE 4 TIMES ( PLEASE CHECK THE SEQUENCE YOURSELF )

    Pehli pehli baar milaata hai yahi seene mein phir aag lagata hai
    B |---------3-2-2-------------------------3-2-2--5-2-----------------
    G |-----2-----------4-2-4-4-6-6------2----------------2-1------------
    D |--4------------------------------4---------------------------------

    Dheere -2 pyar sikhata hai yahi Hansaata hai yahi rulaata hai
    B |---------3-2-2------------------------3-2-2--5-2-----------------
    G |-----2----------4-2-4-4-6-6-------2---------------2-1-2---------
    D |--4----------------------------4-4--------------------------4------

    MUSIC -
    E |---------------------1-------------------------------------------------
    B |--2--------2-----2------3-2--2---2-----2---------2-4-5-4-2-----4-----
    G |-----4-2-----4-----------------------2-----4--4---------------4-----6-6----
    ( SMALL PART OF THIS MUSIC IS MISSING )

    HUMMING -
    B |-------------2-----2--------------------2-----------------------
    G |-------1-2-----4-----4-2-4--------1-2-----2-1-2-1--------------
    D |--4-4-------------------------4-4---------------------4-----------

    STANZA 1 -

    Iss dil ki baaton mein jo aate hain Wo bhi deewane ho jaate hain
    B |-------------------------------------------------2-----------------
    G |--2-1-----------1-2-1----------2-1----------1-----4---------------
    D |--------4-2-4-----------4-2-4--------4-2-4-----------6-6----------

    Manzil to raahi dhoondh lete hain raste magar kho jaate hain
    B |--------------5----------------------------------------------------
    G |--6-6-6-4-6-----6-----4-4--6-4-----6-4---------------------------
    D |---------------------6-------------6---------6-4-2-4-4---------------

    MUSIC 2 -
    G |-----1-2-4-2-4-2--1-----1-2-1-------6-----------------------------
    D |--4--------------------4----------4-6------6--------------------------

    RUN & MUSIC -
    B |-------------2-3--2-3-2-----2--------------------------------------
    G |-----1-2-4---------------4-----4--2-4-2-1-2-1-----1----------------
    D |--4------------------------------------------------4-----4-----4------
    A |-------------------------------------------------------------4---------

    STANZA 2 SAME AS STANZA 1

    STANZA 3 -

    Dil ka kehna hum sab maane dil na kisi ki maane
    B |--------2---------2-----2----------------2-----2-----------2--3-2------
    G |--2-4-----4-2-2-----4-----4-2-2--2-4-----4-----4-2-4------------4---

    Jaan di humne jaan gaye sab Ek wo hi na jaane
    B |------2-3-2----------------------2-2-----2----------------------
    G |--4----------4-4--1-2-4-2-1-1-------4-----4-1--2-1-----------
    D |---------------------------------------------------------4---------

    STANZA 4 SAME AS STANZA 1

    I want to post the song with complete music but the I don't have the song
    right now if I found the CD , I will post the other part,s & music as
    well .
     
    Download IGT Android App
Download IGT Android App

Share This Page

Download IGT Android App Download IGT Android App