Complete tabs + fills + solos + chrds 4 Aye mere humsafar - Qayamat se Qayamat tak...

Discussion in 'Hindi Guitar Tabs - Submit or Request' started by Subhro, Apr 16, 2005.

  1. Subhro

    Subhro Argentina lost :"(

    Complete tabs + fills + chords + solos of Aye mere humsafar - QSQT..
    Reqstd by zoogle.. sry 4 da delay..
    thr is anothr version by awaz too.. n chrds by nikamma.. in sum othr thrd..

    Intro:
    Code:
    #----------------------------------PLEASE NOTE--------------------------------#
    #This file is the author's own work and represents their interpretation of the#
    #song. You may only use this file for private study, scholarship, or research.#
    #-----------------------------------------------------------------------------#
    #-- File created with Instab - [url]http://www.pconline.com/~smcarey/instab.html[/url] --#
    #-----------------------------------------------------------------------------#
    
    Title: Ae mere humsafar
    Album: QSQT
    Transcribed by: Subhro
    
    [B][COLOR=Red]Intro:[/COLOR][/B]
    E |-----------------|
    B |-----------------|
    G |-------3---2-----|
    D |-----5---5---5---|
    A |---5-------------|
    E |-----------------| (Hold Gm and play these notes swiftly...
                           While striking the 2nd last note jus slide the Gm to F#m and thn agn return to the Gm to strike the last note
                           Not holding Gm in barre might help)
    
    Strum chrds: Gm Gm F 
    Keybrd:         Gm F
    Strum
    Pattern: 1-&-2-& | 1-&-2 |
             D-X-D-U | D-U-D |
    
    E |-----------------|
    B |-----------------|
    G |-------3---2-----|
    D |-----5---5---5---|
    A |---5-------------|
    E |-----------------|
    
    Strum chrds: Gm Gm F
    Keybrd:         Gm F
    Strum
    Pattern: 1-&-2-& | 1-&-2 |
             D-X-D-U | D-U-D |
    
    E |-----------------|
    B |-----------------|
    G |-------2---0-----|
    D |-----3---3---3---|
    A |---3-------------|
    E |-----------------| (Hold F and play these notes swiftly...
                           While striking the 2nd last note jus pull off ur middle finger
                           Dont hold F in barre )
    
    Strum chrds: F F Dm
    Keybrd:        F Dm .... F->Gm
    Strum
    Pattern: 1-&-2-& | 1-&-2 |
             D-X-D-U | D-U-D |
    
    
    E |---9h10----------8--10-11-10---|---8----------8------|
    B |---------8-10-11---------------|----11-10-11---------|
    G |-------------------------------|----------------10---|
    D |-------------------------------|---------------------|
    A |-------------------------------|---------------------|
    E |-------------------------------|---------------------|
                                                              
                                                           [Gm chord                    
                                                            on 10th fret] 
    E |---7h8------5-6-----|-------5-5-----|-----------8-10x--10x---|
    B |--------6-8---------|-----------8---|---8-10-11--------11x---|
    G |----------------8---|--6h7----------|------------------12x---|
    D |--------------------|---------------|------------------12x---|
    A |--------------------|---------------|------------------------|
    E |--------------------|---------------|------------------------|
    
    play the followin combination now..
    
    E |---5-3-5----5--3----5--3---5--3---|
    B |---3-1-3----3--1----3--1---3--1---|
    G |---3-2-3----3--2----3--2---3--2---|
    D |---5-3-5----5--3----5--3---5--3---|
    A |---x-x-x----x--x----x--x---x--x---|
    E |---x-x-x----x--x----x--x---x--x---|
          D U D    D  U    D  U   D  U 
    this combination may be prfct may be not..but its closest 2 da prfct 1 i guess..
    
    Fills :
    Code:
    [B][COLOR=Red]Fill 1: [/COLOR][/B]
    E |---------------------|
    B |---13-12-13--10------|
    G |----------------10---|
    D |---------------------|
    A |---------------------|
    E |---------------------|
    
    [B][COLOR=Red]Fill 2:[/COLOR][/B]
    E |--------------------|
    B |---11-10-11----10---|
    G |------------10------|
    D |--------------------|
    A |--------------------|
    E |--------------------|
    
    [B][COLOR=Red]Fill 3:[/COLOR][/B]
    E |----------------------------|
    B |---13-12-13--10----10-------|
    G |----------------12-----10---|
    D |----------------------------|
    A |----------------------------|
    E |----------------------------|
    
    [B][COLOR=Red]Fill 4:[/COLOR][/B]
    E |------------------|    |------------------|
    B |---10--8--10--8---|    |---10--8--10--8---|
    G |------------------|    |------------------|
    D |------------------|    |------------------|
    A |------------------|    |------------------|
    E |------------------|    |------------------|
                           Eb                      Eb  Bb (keybrd notes)
    thr r some more keybrd notes ..i play Gm F and once Cm in guitar..
    
    [B][COLOR=Red]Fill 5:[/COLOR][/B]
    E |----------------------|
    B |------10-11x-11-------|
    G |---12------------12---|
    D |----------------------|
    A |----------------------|
    E |----------------------|
    
    Solos:
    Code:
    [B][COLOR=Red]Solo 1:[/COLOR][/B] 
    Keybrd: Gm F Bb
            F F Gm
    [tabs in 3rd brackets r fast up-n-down pluckin of da strings..]
    
    E |-----------------------------------------------------------------------------------------|
    B |---[888]-10-[11.11.11]-[10.10.10]--------------------------------------------------------|
    G |----------------------------------[10.10.10.10.10.10.10.10.10.10.10.10.10.10.10.10]-10---|
    D |-----------------------------------------------------------------------------------------|
    A |-----------------------------------------------------------------------------------------|
    E |-----------------------------------------------------------------------------------------|
    
    E |-------------------------------------------------------|
    B |--------------8-[10.10.10]-8----[8888888888888888]-8---|
    G |---[10.10.10]----------------10------------------------|
    D |-------------------------------------------------------|
    A |-------------------------------------------------------|
    E |-------------------------------------------------------|
    
    E |--------------------------8--------------------------------------------------------|
    B |---[888]-10-[11.11.11]-10----------------------------------------------------------|
    G |----------------------------[10.10.10.10.10.10.10.10.10.10.10.10.10.10.10.10]-10---|
    D |-----------------------------------------------------------------------------------|
    A |-----------------------------------------------------------------------------------|
    E |-----------------------------------------------------------------------------------|
    
    E |-----------------------------------------------------|
    B |--------------8-[10.10.10]-8----[8888888888888888]---|
    G |---[10.10.10]----------------10----------------------|
    D |-----------------------------------------------------|
    A |-----------------------------------------------------|
    E |-----------------------------------------------------|
    
    Keybrd: Gm Gm | F F | Gm F Bb C.. (not sure) | Gmadd9 Fadd9 (chrd name pointd out by bandbaaja)
                                                 (4 times) 
    [B][COLOR=Red]Solo 2 (Theme):[/COLOR][/B]
    E |------------------------------|------------------------------|
    B |---[11.11.11]-10-[88888888]---|---[11.11.11]-10-[88888888]---|
    G |------------------------------|------------------------------|
    D |------------------------------|------------------------------|
    A |------------------------------|------------------------------|
    E |------------------------------|------------------------------|
    
    
    E |------------10---[888]--------------------------------------------|
    B |---11-11-11-----------11---10-11-10-8-----------------------------|
    G |--------------------------------------[10.10.10.10.10.10.10.10]---|
    D |------------------------------------------------------------------|
    A |------------------------------------------------------------------|
    E |------------------------------------------------------------------|
    
    
    E |--------------------|----------------------|
    B |---8---8---10--8----|---8---------10--8----|
    G |---10--10--12--10---|---10-10-10--12--10---|
    D |--------------------|----------------------|
    A |--------------------|----------------------|
    E |--------------------|----------------------|
    
    
    E |----------------------------------------------------------------|
    B |---------[11.11.11.11.11]--[10.10.10]--8--[88888888]------------|
    G |----------------------------------------------------------------|
    D |---12-12--------------------------------------------------------|
    A |----------------------------------------------------------------|
    E |----------------------------------------------------------------|
    
    Keybrd: Gm Gm | Eb Eb | Bb Bb | F F  
            F F F F Eb Gm
    
    Continued in nxt post.... too big to fit n 1 post !!
     
    basit_jaaaani and vini like this.
  2. Subhro

    Subhro Argentina lost :"(

    The Song:

    Chords r stolen frm Nikamma's thrd :p:

    Code:
    [B]** Play [COLOR=Red]Intro[/COLOR][/B]
    aftr tht play the followin notes
    
    I play dis notes softly.. so kept thm in brackets..
    
    E |------(10)---(8)-(10)-------(8)---------------|------(10)---(8)-(10)-------(8)---------------|
    B |---(8)------------------(11)------(10)-(11)---|---(8)------------------(11)------(10)-(11)---|
    G |----------------------------------------------|----------------------------------------------|
    D |----------------------------------------------|----------------------------------------------|
    A |----------------------------------------------|----------------------------------------------|
    E |----------------------------------------------|----------------------------------------------|
                                                                                  
    
    E |------(10)---(8)-(10)-------(8)---------------|------(8)---(6)-(8)----(5)-(6)-------(5)---|
    B |---(8)------------------(11)------(10)-(11)---|---(6)---------------------------(8)-------|
    G |----------------------------------------------|-------------------------------------------|
    D |----------------------------------------------|-------------------------------------------|
    A |----------------------------------------------|-------------------------------------------|
    E |----------------------------------------------|-------------------------------------------|
          Ae......    mere.....                          humsafar..........
    
    E |------(10)---(8)-(10)-------(8)---------------|------(8)---(6)-(8)----(5)-(6)-------(5)---|
    B |---(8)------------------(11)------(10)-(11)---|---(6)---------------------------(8)-------|
    G |----------------------------------------------|-------------------------------------------|
    D |----------------------------------------------|-------------------------------------------|
    A |----------------------------------------------|-------------------------------------------|
    E |----------------------------------------------|-------------------------------------------|
          ek....... dara......                           intezaaaaaaaaaar.....
    
    E |------(8)---(6)-(8)----(5)-(6)-------(5)---|------(8)---(6)-(8)----(5)-(6)-------(5)---|
    B |---(6)---------------------------(8)-------|---(6)---------------------------(8)-------|
    G |-------------------------------------------|-------------------------------------------|
    D |-------------------------------------------|-------------------------------------------|
    A |-------------------------------------------|-------------------------------------------|
    E |-------------------------------------------|-------------------------------------------|
          Sun..... sadaee.....                         De..... rahi..... hai.....              
    
                                                                    
    E |---(6)---|    
    B |---(8)---|
    G |---(8)---|
    D |---(8)---|
    A |---(6)---|
    E |----x----|
         ( Eb )          
         Manzil.... pyar ki....
    
    Gm      Eb        Bb      F
    Ae mere humsafar, ek zara intezaar
    F             F            Eb           Gm
    Sun sadaayein de rahi hain manzil pyaar ki
    
    [B]** Play [COLOR=Red]Solo 1[/COLOR][/B]
    
    [I]1st para[/I]
    -------------------------------------------
    
    Gm               F       
    Ab hai judaai ka mausam, 
    
    [B]** Play [COLOR=Red]Fill 1.[/COLOR][/B]
    
    F         Gm
    do pal ka mehmaan
    
    [B]** Play [COLOR=Red]Fill 2.[/COLOR][/B]
    
    Gm                F        
    Kaise naa jaayega andhera, 
    
    F                 Gm
    kyoon naa thamega toofan ............ x 2 times (the whole para)..Female n male voice
    
    G         C     Bb Eb           Gm
    Kaise naa milegi   manzil pyaar ki
    
    --------------------------------------------
    [I]Female voice:[/I]
    
    Gm      Eb        Bb      F
    Ae mere humsafar, ek zara intezaar
    
    [B]** Play [COLOR=Red]Fill 3.[/COLOR][/B]
    
    F             F            Eb           Gm
    Sun sadaayein de rahi hain manzil pyaar ki
    
    [B]** Play [COLOR=Red]Fill 4.[/COLOR][/B]
    
    [I]2nd para[/I]
    -------------------------------------------
    
    Gm                  F       
    Pyaar ne jahan pe rakha hain
    
    [B]** Play [COLOR=Red]Fill 1.[/COLOR][/B]
    
    F             Gm
    jhum ke kadam ekbaar
    
    [B]** Play [COLOR=Red]Fill 2.[/COLOR][/B]
    
    Gm                     F        
    Wohi se khula hai koyi rasta
    
    F                Gm
    wohi se giri hai deewar ............ x 2 times (the whole para)..Female n male voice
    
    G        C       Bb Eb           Gm
    roke kab ruki hai   manzil pyaar ki
    
    --------------------------------------------
    [I]Female voice:[/I]
    
    Gm      Eb        Bb      F
    Ae mere humsafar, ek zara intezaar
    
    [B]** Play [COLOR=Red]Fill 3.[/COLOR][/B]
    
    F             F            Eb           Gm
    Sun sadaayein de rahi hain manzil pyaar ki
    
    [B]** Play [COLOR=Red]Fill 5.[/COLOR][/B]
    
    [I]Male voice:[/I]
    
    Gm      Eb        Bb      F
    Ae mere humsafar, ek zara intezaar
    
    F             F            Eb           Gm
    Sun sadaayein de rahi hain manzil pyaar ki
    
    [B]** Play [COLOR=Red]Solo 2 (Theme).[/COLOR][/B]
    
    [I]thts it !![/I]
    
    Tabs r okie.. but da keybrd notes in betwn can be diff..
    i jus playd wht did sound good in my guitar.
    corrections/suggestions ??
     
  3. nikamma1112

    nikamma1112 New Member

    Phew ... comprehensive! :rock:

    Will check out the interludes and fills later ...

    - Raj.
     
  4. Subhro

    Subhro Argentina lost :"(

    i stole ur chrds quite comprehensively :p:
     
  5. nikamma1112

    nikamma1112 New Member

    Hehe ... :rule:

    Kidding ... but I rarely have the patience to tab stuff ... finding chords is fun, but writing down notes in the

    -------------3
    -1-1-1--0-1---

    format is something I find very boring.

    Good stuff ...

    - Raj.
     
  6. Subhro

    Subhro Argentina lost :"(

    me 2 me 2 :yawn:.. thts i don post tabs too oftn nowadays :yawn:
     
  7. Rey1970

    Rey1970 New Member

    looks cool!!! I haven't played this song but, you made the effort to work it out took the time to post it, so thats what we must appreciate!!!
     
  8. jayswami

    jayswami Blue J

    good post. i checked the intros they r very good. 5 stars
     
  9. Subhro

    Subhro Argentina lost :"(

    hey.. thnx a lott rey !!

    @J.. wow.. nevr got 5 stars b4.. ma frst 5 stars :grin:
    this post of mine has 2 be good.. :p:
    i got a compliment frm J ..:grin: nowadays he's real nice :p:
     
  10. Liquid

    Liquid New Member

    wow...amazing post :)
     
  11. jayswami

    jayswami Blue J

    subro give 5 stars to yoru self. then u will see the 5 stars appearing :)
     
  12. Subhro

    Subhro Argentina lost :"(

    now i kno how u get 5 stars for all ur thrds :RollLol:
    howevr.. i'l wait 4 sum1 else 2 giv me nothr 5 stars.. :grin:
    and also thr is a certain limit aftr which my patienc wil collapse.. n thn i'l follow mr. swami's footsteps :p:
     
  13. Subhro

    Subhro Argentina lost :"(

    @Liquid.. thnx alott buddy :)
     
  14. virajsusarla

    virajsusarla New Member

    Excellent work.
    Also, really appreciate you on two other counts: patience, and honesty.
     
  15. Subhro

    Subhro Argentina lost :"(

    thnx a lottt viraj :)
    whr r ma 5 strs .. eh ?? :annoyed:..
    he he kiddin :grin:
    thnx agn.. :)
     
  16. KnightRider

    KnightRider New Member

    hey..... great post....
    the intro tabs sounded great....
    here's your 5 star ........... :)
    thanks for the work.... buddy... hope to see great works, like this, from u in the future....
     
  17. Subhro

    Subhro Argentina lost :"(

    wow.. ma frst 5 stars .. yay yay :rule:
    funny i dont see thm comin up whn i click the new posts link.. but they r showin in the hindiguitartabs forum.. :p:
    thnx knightrider :)

    @J.. i din rate maself 5 strs like u do :Tongue2:
     
  18. atthanii

    atthanii Theif Slayer

    amazing dude....
     
  19. Subhro

    Subhro Argentina lost :"(

    thnx atthanni :)
     
  20. awaz_bass

    awaz_bass Don't mistake for F*RT

    Gr8 wrk Subhro

    Hey subhro - you have done excellent job with tabs ...
    Keep up the good work....

    The chords for the song are bit off (I feel)..
    I am postin the chords below....

    Code:
    Gm      Eb        GM      F
    Ae mere humsafar, ek zara intezaar
    F             F                A#       Gm
    Sun sadaayein de rahi hain manzil pyaar ki
    
    ** Play Solo 1
    
    1st para
    -------------------------------------------
    
    Gm               F       
    Ab hai judaai ka mausam, 
    
    ** Play Fill 1.
    
    F            A#
    do pal ka mehmaan
    
    ** Play Fill 2.
    
    Gm                   F        
    Kaise naa jaayega andhera, 
    
    F                   A#
    kyoon naa thamega toofan ............ x 2 times (the whole para)..Female n male voice
    
    G         C     F      A#       Gm
    Kaise naa milegi   manzil pyaar ki
     

Share This Page