CHORDS & TABs>>> krisno~kaya

Discussion in 'Bengali Guitar Tabs - Submit or Request' started by rizz, Feb 24, 2005.

  1. rizz

    rizz *Always 420*

    intro:
    e-------------------------------||
    b-------------------------------||
    g-------------------------------||.....play 2 times
    d-------------------------------||
    a--0--0--3-3-3-3--2--2----------||
    e-----------------------3-3-3-3--||

    then....

    e-------------------------------
    b-------------------------------
    g-------------------------------
    d-----------------0-0--2-2-2-2---
    a--0--0--3-3-3-3----------------
    e-------------------------------


    CHORDS:
    AM...........EM..........
    krisno aila radhar khunje
    F...........AM.....
    fuley paila vromora
    AM......EM.........F...AM..
    moyur besete sajon radika
    AM...........EM........
    suya chondon fuler mala
    F...........AM......
    soki gone loyya aila
    AM.......EM........
    anonde sokigon nache
    F..........AM........
    dhekhiya premer khela

    REST OF ALL SONG GOES IN THIS WAY.....

    im waiting 4 replies..
     
  2. polti

    polti New Member

    nice work rizz
     
  3. rizz

    rizz *Always 420*

    thx polti...chord r tab thik asey to???....kono vul thakle amake bolbe plz.........
     
  4. polti

    polti New Member

    yeah shob thik ase perfect. kono bhul nai :D ami abar bhul pele direct bole dei. mind korle koruk. khek
     
  5. rizz

    rizz *Always 420*

    hehe...tai valo....eita valo ovvash....jodi tumi nai bolo tahole ami bujbo kivabe je amar vul ase.....
     
  6. saif824

    saif824 New Member

    Good work...rizz
     
  7. billyboy

    billyboy New Member

    I don't think the song is in that sacle
    the song's root chord will be "Abm"

    I'm givig you guyz the tab of the intro music
    (with an audio clip)

    -------------------------------------------------------------------
    -------------------------------------------------------------------
    -------------------------------------------------------------------
    ------------------------------------------------- ----------1--1-1-1
    --------2--2-2-2--1-1-1-----------------2--2-2-2----4-4-4-----
    --4-4-4------------------2-2-2-2--4-4-4-------------------------

    Check this out :rock:
     
  8. rizz

    rizz *Always 420*

    @saif thanx....i really need that kinds of replies...hehe
    @billyboy......its o.k....tomartao thik asey...kintu chord kothay..??....tomar ta ar amar tar modhe parthokko shudhu etukui je amra dujon dui scale theke korsi...jaihok chordgulao pathao....
     

Share This Page