chords of the song BIN TERE (reprise) from I HATE LUV STORYS

Discussion in 'Hindi Guitar Tabs - Submit or Request' started by varunkhatter, May 29, 2010.

  1. varunkhatter

    varunkhatter New Member

    hello frnds, can u plz post the chords of the song Bin tere (reprise) from the movie i hate luv storys. this is a wonderful song.

    :))regards
     
  2. varunkhatter

    varunkhatter New Member

    as far as i thinks......song is something like:

    c------------------Am
    bin tere bin ter bin tere
    G-----------------------C
    koi khalish hai hawaon mein bin tere

    but i need the accurate chords.

    plz help
     
  3. varunkhatter

    varunkhatter New Member

    c'mon mates
     
  4. fahim2003

    fahim2003 New Member

    the actual version is better. The reprise is not in C for sure.. The chords are wrong. I will try to figure out the chords.
     
  5. fahim2003

    fahim2003 New Member

  6. J.Anand

    J.Anand New Member

    This is for the acoustic version
    Strumming Pattern : D_UU

    Teri nigaahon ke, teri hi raahon ke
    ------C---------------------F------
    Kareeb se gayi zindagi
    --G--------------------C-


    Tujhe kyun dekha na, tujhe kyun jaana na
    --------------C-----------------------F--------
    Shikayatein karun ya nahin
    ----G--------------------C---


    Thami hai yeh saansein, bhari hai yeh aankhein
    Am-------------------------G----------------------
    Sahu kaise ab yeh faasla
    F---------------------G--


    Bin tere, bin tere, bin tere
    -----C--------------------F-----
    Koi khalish hai hawaon mein bin tere
    -----G-------------------------------C----

    Bin tere, bin tere, bin tere
    -----C--------------------F-----
    Koi khalish hai hawaon mein bin tere
    -----G-------------------------------C----

    [Rest of the song uses almost similar chord progression]


    Kuch bacha hi nahin darmiyaan
    Saans leti hain ab yeh dooriyan

    Dil nahin jaanta raahon mein
    Haath se haath choote the kahan

    Kyun nazar ke kinare, tootey hain khwab saare, tu bataa
    Suna suna samaa hai, khaali khaali jahan hai, ab mera

    Bin tere, bin tere, bin tere
    Koi khalish hai hawaon mein bin tere

    O bin tere, bin tere, bin tere
    Koi khalish hai hawaon mein bin


    Rock On
    AJ
     
  7. sealand123

    sealand123 New Member

    These are the chords for u for Bin Tere(Reprise):)

    Duuu uuuu uuuu
    (C......Em.....Am...)

    Teri Nigahon ke
    (C......Em.......)
    Teri hi raahon ke
    (Am..............)
    Kareeb se gai zindagi
    (F........G........C.....)

    Tujhe kyun dekha na
    (C.....Em........)
    Tujhe kyun jana na
    (Am..............)
    Shikayatein karun ya nahi
    (F.............G.......C.......)

    Thami hai yeh saasein
    (Am.......................)
    Bhari hai yeh aanhkein
    (Em.......................)
    Sahu kaise abb yeh fasla
    (F........................G....)

    Bin Tere Bin Tere Bin Tereeee
    (C.........Em........F.............)
    Koi khalish hai hawaon mein Bin Tere
    (G.................F................C........)

    Bin Tere Bin Tere Bin Tereeee
    (C.........Em........F.............)
    Koi Khalish hai hawwaon mein Bin Teree
    (G.................F..................C..........)

    Kuch bacha hi nahi darmiya
    (C.............Em.......Am.....)
    Saaans leti hai abb yeh dooriyann
    (G..................F..........C..........)

    Dil nahi janta raahon mein
    (C.......Em.....Am...........)
    Haath se haath Choote the kahan
    (G...................F.............C......)

    Kyun Nazar ke kinaare Tutte hai khwaab saaare Tu bata
    (C.............Em...........Am...................F ..........G......)
    Suna suna sama hai Khali khali jahan hai aab mera(same)

    Bin Tere Bin Tere Bin Tereeee
    Koi khalish hai hawaon mein(Same as previous bin tere)
    Bin Tere

    o Bin Tere Bin Tere Bin Tereeee

    Koi Khalish hai haawaaon mein bin tere............
     
  8. mygittu

    mygittu New Member

  9. mygittu

    mygittu New Member

    the reprise is in c scale for sure dude.....check it out one more fahim
     
  10. ashwani27chahal

    ashwani27chahal New Member

    can anyone suggest the lead part please?
     
  11. varunkhatter

    varunkhatter New Member

    lead is quiet easy.....wait for a while...let me figure out the tabs...
     
  12. varunkhatter

    varunkhatter New Member

    E|-------------------------------------
    B|-------------------------------------
    G|-----2--4--5--4----------------------
    D|--2--------------5s7---5-------5-----
    A|----------------------------7-----7--
    E|-------------------------------------
     
  13. varunkhatter

    varunkhatter New Member

    E|------------------------------------
    B|--------------------------------
    G|-----4--5s9----7----5----4----------------
    D|--7--------------------------5s7---5--------
    A|-----------------------------------------7--
    E|-------------------------------------------
     
  14. varunkhatter

    varunkhatter New Member

    E|------------------------------------
    B|-----------------------------------
    G|-----4--5s9----9-----4-5s12---12----
    D|--7----------------7----------------
    A|-------------------------------------
    E|--------------------------------------
     
  15. varunkhatter

    varunkhatter New Member

    E|---------------------------------------------------------------------
    B|-----10--12----12(b)---10--------------------------------------------
    G|--9-------------------------12--9--7s9--7--5--4--5--4----------------
    D|------------------------------------------------------7--5--5s7--5-----
    A|-------------------------------------------------------------------7--2-
    E|------------------------------------------------------------------------
     
  16. aniketrocker009

    aniketrocker009 New Member

    wat's this (b) here?
     
  17. jeit

    jeit New Member

    Great work guru! Many many thanks.
     

Share This Page