chords of Krosswindz(GHUM BHANGE)

Discussion in 'Bengali Guitar Tabs - Submit or Request' started by billyboy, Dec 3, 2004.

  1. billyboy

    billyboy New Member

    Krosswindz(GHUM BHANGE+O MON)+tab

    Ghum Bhange[krosswindz]

    E--------B------------A----------
    amaaaaar ghuum bhangeeeeee..
    Abm-------------------------A----------B------------E-----------------
    khokhono shanto mone........kokhono ...bhorer.......sopne....

    amar boyos bare........
    fele asi...... koto..... kichu....... kon otite
    tobu raat periye.........
    kotha kichu...... ase.....veshe..... tomay....ghire

    --------Bm-----------------------F#-----------
    E ki je hoy amaar.......bishonna charidhar....
    -------G-----------F#m-----------E---
    KlaNto mon amaar.........keno bolo[2]


    for the second time-
    ---------E------B----------BBBBBB
    KENO..boloooooooooooooooooooooooo
    --------A-----------
    aMAAR Raat KAte....



    ekta special dhonyabad 'DHOP'-ke guitar-ta pathabar jonyo
    aar dhop, dekhchi lead ta hoy neki...


    O MON[krosswindz]

    Em----------------------
    theke theke bose thaki....
    C----------D-----------
    fele rekhe kaaaj amaar..
    Em-------------------
    fire fire jai ami
    Bm-------------
    Oi thikanay...[sAME CHORDS WITH DIFFERENT LYRICS]

    Em------A-------
    OOOOO MOOOOOOON
    --------------Em--------
    Parini tomake ferate hai...
    Em------A-------
    OOOOO MOOOOOOON
    --------------Em--------
    JANINA KE JE DAKE AMAY
    ---------D-------
    PATA SOB PORE JHORE
    -------C----------
    SOMOY JAI CHOLE[2]
    ---------------B----
    KI JENO KE CHIRBHULE


    E----2----3----5----7----7-------
    B----4----5----7----7----8-------
    G----4----5----7----8----9-------
    D------------------------9-------
    A------------------------7-------
    E------------------------7-------






    ekta special dhonyabad 'DHOP'-ke guitar-ta pathabar jonyo
    aar dhop, dekhchi lead ta hoy neki...
     
  2. dhop

    dhop New Member

    bah bah :p: "billiboy" :p: heby josh gan. welcome man >>>>>>>(~.~)<<<<<<<
    ......................=((~))=
    .......................=(~)=
    ......................=((~))=
    .........................| |
    ........................ |D|
    .........................|H|
    .........................|O|
    .........................|P|
    .........................| |
    ................((^~~| |~~^))
    ...................((.............))
    ....................((...(0)....)) ====>ONEK KOSTO KORE EKECHI :p: IGT ER
    ....................((..........)) SOBAR JONNE :rock:
    ...................[))[]=[](0)[]D
    ...................((............))
    .................((.+..+.+.+.+.))

    jodi lead part o pai to r o beshi khushi hotam :p:
    JOTO PAI TOTO KHAI EI R KI :p:
     
  3. sayanakaharry

    sayanakaharry Forum Leader

    ei gaan tar intro ta daroon. bajate paro to tab baniye post koro.
     
  4. billyboy

    billyboy New Member

    Ghum bhanger tab ta dilam
    bhool mone hole thik kore diyo

    )=stroke continuously
    \,/=slide



    up'nDown
    E|-0------------11\12)))-12-11-9/7-7-7h9-----9\10)))--10-9-7/5-5-7\9-9--
    B|-0---------------------------------9----------------------------------
    G|-1---------------------------------------------------------------------
    D|-2--------------------------------------------------------------------
    A|-2--------------------------------------------------------------------
    E|-----------------------------------------------------------------------

    E|-12)))-12-10-9/7-7----------------------
    B|----------------------------------------
    G|---------------------------------------- :ptime:
    D|----------------------------------------
    A|----------------------------------------
    E|----------------------------------------

    E(nut pos)
    E|-------------------------------------------------------------------
    B|-------------------------------------------------------------------
    G|-------------------------------------------------------------------
    D|--2/6--7p6-7p6\2---------------------------------------------------
    A|------------------2/4\2-------------2------------------------------
    E|-------------------------4/2-0--2\4-----------1/6-7----------------
     
  5. malaguena

    malaguena New Member

    Good job Billiy Boy! I will work on this song.. Dekhi kichhu add korte pari kina...
    Dhop, guitarer chhobi ta khasha hoyechhe :)
     
  6. dhop

    dhop New Member

    thankz malaguena . :p:

    wow billiboy gr8 work man. keep it up. :rock:
     
  7. billyboy

    billyboy New Member

    thanks guyz
    malaquena oi taber majhe amar na deoa chord progression ta pele bhalo hoy

    aar shuru ta 11/12 na kore shudhu 12 holei bhalo shonachhe
    :rockon:
     
  8. sayanakaharry

    sayanakaharry Forum Leader

    sounds great man. good work. wins you rep from me.
     
  9. malaguena

    malaguena New Member

    Sorry guys

    Sorry bondhugon, ektu busy hoye pawray tab ta niye kaaj korte parini.. Shiggir update korchhi.. By the way, I will be meeting neil da (ex guiatrist/song writer of Krosswindz) pretty soon. He is coming down to bangalore :) Bhalo jombe!
     
  10. malaguena

    malaguena New Member

    Ghum Bhange Tab update

    Guys, ei part ta majh khane jure diyo.

    e||--------------0----------------|------------------0--------------|
    B||--------0--------4-----4-------|----------0----------4-----4-----|
    G||-----5----5---------5----------|-------5-----5----------5--------|
    D||-------------------------------|---------------------------------|
    A||-------------------------------|---------------------------------|
    E||--4----------------------------|---4-----------------------------|


    e|--------0--------------0--------|---------0--------------0--------|
    B|-----4-----4--------4-----4-----|------4-----4--------4-----4-----|
    G|--------------------------------|---------------------------------|
    D|--------------------------------|---------------------------------|
    A|--4-------------2---------------|---0--------------4--------------|
    E|--------------------------------|---------------------------------|



    e|--------------------------------|---------------0---------0-------|
    B|--------------2-----------------|-------------------0-------------|
    G|-----------2-----2-----2--------|------------8---------8----------|
    D|--------6-----------6-----------|---------9-----------------------|
    A|-----4--------------------------|------9--------------------------|
    E|--2-----------------------------|---7-----------------------------|
    (2nd frt ta Barre diye- F#m Add9 position)

    After this, E te ektu arpeggio merei bass line ta lagiye dao.
    Bhul truti hole janiyo.
    Eta accurate na holeo kaj chalano jabe boddhoy..
     
  11. malaguena

    malaguena New Member

    Ghum Bhange- Slight change in the Chord progression

    E--------B------------A----------
    amaaaaar ghuum bhangeeeeee..
    G#m F#m E
    khokhono shanto mone........kokhono ...bhorer.......sopne....

    amar boyos bare........
    fele asi...... koto..... kichu....... kon otite
    tobu raat periye.........
    kotha kichu...... ase.....veshe..... tomay....ghire

    Bm F#
    E ki je hoy amaar.......bishonna charidhar....
    -------Bm------F#m--- Em
    KlaNto mon amaar.........keno bolo[2]

    Eta try kore dekhte paro bondhu gawn...

    Arekta tip dichchhi- B ar A major chord duto bajanor shomoy barre use korbe na. Index finger diye 6th string'er jawthakrome B ar A note duto chepe rakhlei cholbe..
    Beparta ki thik thak bojhate parlam, naki gawndogol kore fellam :)
    By the way, ami Bangalore'ye jodi kono Bong guitarist thake, tar sathe alap korte chai..
     

Share This Page