CHORDS OF ANJAN DUTTA(including purono guitar)

Discussion in 'Bengali Guitar Tabs - Submit or Request' started by billyboy, Dec 20, 2004.

  1. billyboy

    billyboy New Member

    Again there is billyboy........
    Now with Anjan Dutta...........



    purono guitar
    ------------



    C#----------------Fm--
    ei buro purono guitar
    C#---------------------Ab
    diyeche koto kichu diyeche
    F#--------------C#-------
    chotokhato sukh maan oviman
    Ab---------------C#
    dukhher gaan diyeche
    C#----------------------Fm--
    roj roj koto koto hajar hajar bhoy
    C#--------------------Ab
    mone jokhon bhir koreche
    F#---------C#-------
    ghorer kone apon mone
    ----Ab---------------C#
    sei bhoy katiye diyeche


    C#--------------Ab-----------
    chele belar sei pata jhora pahare
    F#----------------C#--------
    ghureche eke beke mon jokhon
    C#--------Ab----------------B-----------C#
    ei buro purono guitar chilo songi amar tokhon


    C#----------------Fm---------C#
    tal kete geche koto keteche angul
    C#---------------------Ab
    koto raat jege jege keteche
    F#----------------C#-------
    jibone prothombar bhalobasa harabar
    Ab---------------C#
    jontrona bhuliye diyeche


    c#---------Fm-----C#----Ab--C#
    ei buro purono guitar...

    C#-----------------Fm--------
    koler gaaner sure hariye giye
    C#----------------Ab--
    khuje paoa nijeke abar
    F#------------------------------------
    prithibir koto kotha kache ene diyeche
    F#m------------C#
    amar purono guitar


    C#--------------Ab-----------
    John lenon-er sochhar bhalobasa
    F#-------------C#---
    bob dylan-er oviman
    C#------------------Ab--------
    put bhalo lege bhalobese kauke
    F#------------------C#
    tarahuro kore lekha gaan[2]

    C#-----------------F#---------------
    fele asa koto mukh koto naam thikana
    --------------------C#
    bar bar firiye diyeche
    ---------------------Ab-----------------
    nana kotha nana sure gaan niye ghure ghure
    --------------------C#
    sumoner kache ene diyeche


    c#---------Fm-----C#----Ab--C#
    ei buro purono guitar...

    C#--------------
    idaning hotath kore
    Ab-----------
    onek bhalobasar
    F#------------------C#
    majhe ene feleche amay
    C#--------------Ab--------------
    nijer moto kore kichu kotha bolbar
    F#------------------C#
    sujog kore diyeche amay[2]


    C#-----------------F#---------------
    bhabini to konodin amaar ei bondhuta
    -------------------C#
    hoye jabe bondhu sobar
    --------------------Ab---------
    bhabini to konodin shunbe sobai
    Ab--F#---------C#-
    abar purono guitar


    C#----------Fm----C#
    ei buro purono guitar
    -------------------Ab
    diyeche tomake diyeche
    F#--------------C#-------------
    elomelo kotosob onno loker gaane
    Ab---------------------C#
    tomader kache tene niyeche
    C#----------Fm----C#
    tomake niye kono gaan lekha hoy ni
    -------------------Ab
    chestha korechi bohubar
    F#--------------
    roye geche sob kotha
    C#-------------
    olikhito tar kache
    Ab--F#---------C#
    amar purono guitar
    ----Ab--F#---------C#
    seje amar purono guitar


    more songs of anjan dutta coming up........

    :rockon:
     
  2. dhop

    dhop New Member

    hmmmmmmmm ''billiboy" :rockon: bhalo ganer chord post korecho thanks. guitar e tule ni tarpor bolchi kemon hoyeche :p: r billi boy ekta request roilo jodi rhythm ta o post koro amar jonne bhalo hoto :eek:: .
     
  3. rix

    rix New Member

    Bah billyboy eta amaar ekta oti pochonder gaan...
    eta ei site-e amar prothom lekha...
    daruun diyecho gaanta..... :beer:
    daruuun hoyeche..... :rock:
    aar dhop - er moto amaro oi rhythm ta pele bhalo hoto:cool:
    :rockon:
    aar nochiketar nilanjana4 er tab pele bhalo hoto :p:
    :rock:
     
  4. billyboy

    billyboy New Member

    Nilanjana
    ---------


    Part

    e-------6-----4----
    b-------4-----4----
    g-------4-----4---- (4)
    d-------6-----6----
    a------------------
    e------------------




    Abm-----------------------------------
    lal fite sada moja scoo-schooli uniform
    Eb-----------------------------------Abm
    9-tar siren sonket sylebas-e monojog kom
    Abm-----------------------------------
    pora chere ek chut chutte rastar more
    Eb----------------------------------
    dekhi siren miss kora dokani ta dey
    Abm
    ghorite dom


    Abm-----C#m----------------
    erpor ekrash kalo kalo dhnoa
    B-----------------------------Abm----
    school bus-e kore tar druto chole jaoa
    ------Abm----------------C#m---------
    erpor vishon n**** ma*** nobo**** ***
    -----B--------------Eb---Abm------
    obosader vire thaka se dirghodin

    Abm-----------------------
    hazar kobita bekar sobita
    -------------------F#
    tar kotha keu bole na

    -----E-----------F#----------Abm
    se prothom prem amar...Nilanjana



    Part

    e-------6-----4----
    b-------4-----4----
    g-------4-----4---- (4)
    d-------6-----6----
    a------------------
    e------------------



    Abm----------------------B-------
    sondha ghonato jhokhon paray paray
    Abm------------------------------B-------
    rock thakto bhore kichu bokhate choray
    Eb----------------------------------
    hindi ganer buli soddo sekha galagali
    F#-----------------Eb----Abm
    ek gheye hoye jeto somoy somoy
    ----------------C#m------------
    tokhon udas mon bhole monoronjon
    B-----------------Eb----------
    dam diye jontrona kinte chay

    F#--------------Eb--------------
    tokhon nilanjana premiker kolpona
    F#---------------Eb----Abm
    e moner govirota jante chay

    Abm----------------C#m---------
    jokhon khola chule hoyeto moner bhule
    B---------------------Eb---Abm------
    takato se obohele du chokh mele


    Abm-----------------------
    hazar kobita bekar sobita
    -------------------F#
    tar kotha keu bole na

    -----E-----------F#----------Abm
    se prothom prem amar...Nilanjana





    :rockon: :band: :ptime:
     
  5. dhop

    dhop New Member

    :think: confusion :think: confusion
    "billiboy" ei ganer chord r intro lead part ta "taquila" onek din aage post koreche. tumi hoyto dekhoni jai hok,taquila jeta post korechilo seta bajiye amar darun legechilo bhul ache bole mone holona.ami kintu ekebare notun guitar sikhchi ekhane tai ami thik bolte parbona karta sothik."billiboy" tomar ei ganer post ta ami ekhono guitar e try korini.

    "billiboy" :rockon: r o ganer chords chai :rock: tomra acho bolei ami ekhono guitar e tung tang korte pari :p:

    niche "taquilar" nilanjana ganer chord paste korchi.


    Nilanjana-I Complete works

    --------------------------------------------------------------------------------

    Nilanjana Part 1
    ==========

    NOTE:
    =====
    Here also the basic chord progression is by Arindam Da. I have just changed or inserted
    a few new things. I have also added a intro music portion in the beginning. Well, I know
    the intro lead that I have figured out may not be accurate. But it is easy to play.
    And when I play it with my Jumbo model semi-accustic, it sounds very nice and accurate.
    Still, I will say, if any one here knows the exact intro lead, please post.
    (..did u hear, Arindam Da?!)

    STANDING TUNINING:
    ==============
    E B G D A E

    CHORD USED:
    ==============
    Am, C, Dm, G, E7

    INTRO LEAD:
    ==============
    (L = Little finger/ R = Ring finger/ I = Index Finger)

    E--------------------------------------------------------------
    B----------------------------------3(I)------------------------
    G--------4(I)--4--4(slide)5--4-------5(R)--4(m)--4(slide)5
    D----7(L)------------------------------------------------------
    A--7(r)--------------------------------------------------------

    (then again almost the same thing, only a small change.. but play it faster)
    E-----------------------------------------------
    B--------------------------3--------------------
    G--------4(I)--5--5---4-------5--4--4(slide)5
    D----7(L)----------------------------------------
    A--7(r)----------------------------------------


    E------------|------------|-------------|--------------
    B------------|------------|-------------|--------------
    G------------|-----4--4--|------5--5--|--------7--7-
    D-----7--7--|--5---------|---5--------|-----7--------
    A--7---------|------------|-------------|-------------
    E-------------|------------|-------------|-----------

    E--------------------------
    B--------------------------
    G--9--9--10--9--9h--10--9
    D---------------------------
    A---------------------------
    E---------------------------

    E------------------------------------------------------
    B---------------------------------------------------
    G--------4(I)--5---7---5---4---5------------------
    D----7(L)------------------------------------------
    A-------------------------------------------------

    E------------------------------------------------------
    B---------------------------------------------------
    G--------4(I)--5---7---5---4---5---4--------------
    D----7(L)------------------------------------------
    A-------------------------------------------------

    E------------------------------------------------------
    B---------------------------------------------------
    G--------4(I)--5---7---5---4---5------------------
    D----7(L)------------------------------------------
    A-------------------------------------------------

    (play the following part very fast, it's nothing but
    a simple continuos scale pattern)
    E-------------------------5--7--8--8--8(slide)10--8--7--5-
    B---------------5--6--8--------------------------------------
    G-----4--5--7------------------------------------------------
    D--7----------------------------------------------------------
    A---------------------------------------------------------
    E---------------------------------------------------------



    Now the Song
    ============
    Am-----------------
    Lal fite sada moja
    --------------G-------
    scu - school uniform
    C---------------------------------Am------------
    notar syren sonket syllebus e monojog kom
    Am---------------
    Pora fele ek chut
    -------------G-----
    chute rastar more
    --------C------------------------------------Am---------
    dekhe, syren miss kora dokanira daye ghorite dom
    Dm------------------------------
    erpor ekrash, kalo kalo dhoaa..
    C------------------------------E7---------
    school-bus e kore tar druto chole jaoa
    Am-------------------
    er por bishonyo din
    G-------------------
    baje na mono bin
    F------------------------
    aboshade ghire thaka
    E7-----------
    se dirgho din..
    Am-------------------------
    Hajar kobita.. bekar sobitar
    Am-----------------------------
    Hajar kobita.. bekar sobitar
    G---------------------
    tar kotha keu bole na..
    ---F----------------G-------Am-----
    se prothom prem amar nilanjana..

    ==========
    C---------------------------Am---------
    sondhya ghonato jakhon paray paray..
    C---------------------------Am---------
    rock thakto vore kichu bokhate choray..
    Dm--------------
    hindi ganer koli
    Dm--------------------
    sodyo sekha galagali
    G----------------------F-------Am----
    ek gheye hoye jeto somay somay
    Am---------------
    takhon udash mon
    G-------------------
    bhule mono ranjan
    F--------------------
    dam diye jantrana
    E7(or Am?)--------
    kinte chay..
    Am-------------
    takhon nilanjana
    G-------------------
    premiker kolpona
    F------------------
    o moner govirota
    E7---------
    jante chay..
    Am-----------------
    jakhon khola chule
    G--------------------
    hoyto moner bhule
    F----------------------
    takato se abohele
    E7---------------
    du chokh mele..
    Am---------
    hajar kobita............

    Rest is same..
    For any suggession please reply..
    Thanks.
    Akash Mitra.


    ++++++++++++++++++++++++++++++++++++++++++++++++
    Please note that the basic chords are from Arindam Roy.
    ++++++++++++++++++++++++++++++++++++++++++++++++
     

Share This Page