CHORDS AND TABS OF CACTUS(including holud pakhi,kotha chilo,uh maa etc)

Discussion in 'Bengali Guitar Tabs - Submit or Request' started by billyboy, Dec 16, 2004.

  1. billyboy

    billyboy New Member

    CACTUS








    Kotha chilo
    -----------

    Am-----E--------G-----------------E-----------Am

    E----------------------------------------------------
    B-3h5---------------------------------------1-1h2----
    G------2-5-4--------4-5-5h7-5-4-4h5p4-----4----------
    D----------------4h5------------------1h2------------
    A----------------------------------------------------
    e----------------------------------------------------


    Am-----------------------------G------------E--
    Kohtha chilo ek din chole jabo door nil simanay
    Am--------------------------F------G
    ek chute paar hoye jabo simana
    Am---------------------------G--------E---
    KOtha chilo ek din tule niye sob moru bhumi
    Am----------------------------F-----G
    Chnure fele debo sagorer kinaray
    Am----------F------------G---------E
    kotha chilo sob sobu sukiye jabar age
    F---------G-------E-----
    agei debo omriter sondhaN


    -----------Dm----
    sudhu tumi ele na
    -----------Bb----
    sudhu tumi ele na
    -----------Dm----
    sudhu tumi ele na
    -----------Bb----
    sudhu tumi ele na
    ---------C---------A---
    Somoy khnujeche je tomay









    Bristi....uH maa
    ----------------

    B..............A.........

    B--------------A---------
    -----9-----....-----7----
    ---7--7-7--....---5--5-5-
    --8-8--8---....--6-6--6--
    -9---------....-7--------
    -----------....----------
    -----------....----------

    B---------------------------A---
    muthoy hostakhhorhin kichu kolpona
    B-----------------------A---
    sohore ahaaaj bristi asche
    B-----------------------------------A---
    fire jao fire jao simanto aaj neel abedon
    B---------------------A
    sohore ahaaaj bristi asche
    B-----------------Abm-----
    ghum ese jak kono khoti nei
    B----------------A---
    aaj ekhane kalo ekhane
    B----------------Abm--
    sondhe gulo kete jachhe
    B-----------------A----
    sohore aaj bristi asche

    Bm--------------------G---------------------A-
    raat jaga sopno gulo jol bheja nimesh jak niye
    Bm---------------------G--------------Bm-
    oboshorer probeshdare jara ache jak sore
    G-------Gb
    ekhon...............
    B-----------------Abm-----
    ghum ese jak kono khoti nei
    B----------------A---
    aaj ekhane kalo ekhane
    B----------------Abm--
    sondhe gulo kete jachhe
    B-----------------A----
    sohore aaj bristi asche

    "UH MAA"
    E------------------------------
    B------------------------------
    G----0-----0-----0-----0--0----
    D---4-4---4-4---4-4---4--4-4---
    A--2-----3-----2-----2--3------
    e-3-----3-----3-----3----------

    E----0-----0-----0-----0--------0-0---0-----2---
    B---0-0---0-0---0-0---0-0-------2---1-1-----0---
    G--0---0-0---0-0---0-0---0------0-----0-----2---
    D-2-----1-----0-----------------2-----2-----1---
    A-------------------4-----0-2-3-3-----2--2--2---
    E-------------------------------0-----0-----0---



    Em-D------------G-
    Uh ma mone pore na

    G------C------G-------C
    Kothay kobe dekhechi alo
    -----Em---------------D---
    sesh kalo raat periye giye


    Em-D------------G-
    Uh ma mone pore na
    G-D------------G-
    Uh ma mone pore na
    G--C----Am------------G-
    Uh maaaaaaa mone pore na
    -------A--------------------------------------
    Kokhon Kothay neel alor bikel katiyechi eksathe
    -----D--------------------Em--
    sesh kotahy hobe ei jontrona

    Em--C--Am---Em
    ----C-----------G--------------A--------
    Aha ha aa ha aa ha ha aa ha aa ha aa ha

    Em-D------------G-
    Uh ma mone pore na
    Em-D
    Uh ma ........








    AMRA VISHON EKA
    ---------------
    B-----------------------------------Abm---E-Abm-B
    Poth cholar golpo,poth cholar golpo Ojana Ekhono
    B----------------------------------Abm--E-Abm-B
    du chokh chuye jay ni ojana ochena amar Ekhono[2]

    B---------------------
    nisongota kate bignapone
    Ebm------------------
    sunnotar ei din japone
    Abm----------------A----
    hariye jai porapon mottotay
    B---------------------
    Bikhhipto progotir Vire
    Ebm------------------
    bondhon pore sob chnire
    Abm-------------------A---
    sunnota nissongo stobdhotay
    B---------------Abm-------------------Ebm------------A---
    amra vishon eka bnachbo ki bnachbo na sopna jabe to dekha
    B---------------Abm-------------------Ebm-------------A---
    amra vishon eka bnachbo ki bnachbo na morudyan ki pabona













    BHOY
    ----
    Am Am Am D G Am..[2]Am Am G D G Am..Am Am Am D G Am..

    Am--------------------------------
    more more bnak theme theke dekhe ni
    c--------------D--
    chine ni chora goli
    Am---------------------
    ami jani na keno jani na
    D-------------Am-
    kine feli maduli
    Am------------------------
    paye jak jara ache pechone
    C----------D--
    bhuler khatay
    Am-----------------------
    ami bujhina keno bujhina
    D------------Am---
    sob pabo kon dorjay

    C----D------C---------------------D--------------
    sesh rastay pouche giye ki hariye bikiyechi sostay

    -------D---------------------------Am
    payi bhoy thak sohay hok virutari joy
    -------D-----------------------------Am
    payi bhoy thak sohay jeno jitbo nishchoy
    -------D---------------------------Am
    payi bhoy thak sohay hok virutari joy
    -------D-----------------D-D--DDDAm
    payi bhoy thak sohay jeno..........










    HALOJEN
    -------
    F--------Bb--------C------Bb--
    halojene dhuye jay sondhe satta
    F----------Bb--------C-----Bb-
    chupi sare name kolkatar ratta[2]
    Bb--------------F--
    ofis paray kaaj thame
    Bb-----------------F-
    ghor mukho hoy kerani
    Bb------------F--
    keu ba jiriye ney
    Bb--------------F--
    ciggeret aar chiruni
    F-------------------
    briefcase hate officer
    Bb-----------
    taxir sondhane
    F---------------------------
    karoor ba chokh ghora guri kore
    Bb---------------
    ekhane aar okhane
    F-----------
    kena becha chole
    ----------------
    footpath rastay
    -----------------
    keu beshi daam chai
    --------------------
    aar keu debe sostay











    HOLUD PAKHI
    -----------
    D----F#M----Em----D--A--


    E---------------------5s7-10s12----10----9--------
    B--5s7-5h7-3-5s7-3-5-5----------5s7---7s5--5s3----
    G-------------------------------------------------
    D-------------------------------------------------
    A-------------------------------------------------
    e-------------------------------------------------



    D--------------F#M---------Em---------D---A
    sei je holud pakhi bose jamrul gacher dale
    D--------------F#M-------Em------D---A
    korto dakadaki amar soisober sokale
    D--------------F#M---------Em---------D---A
    sei je holud pakhi bose jamrul gacher dale
    D--------------F#M-------Em------G
    korto dakadaki amar soisober sokale
    G-----------A---G----------A-----
    ek din gelo ure JANINA kon sudure
    D----------------G-----------A-----------D--
    Firbe na seki firbe na firbe na aar konodin

    ICHAMOTI
    ---------
    Em---D----C---



    IT'S REALLY A HARD WORK......
    "UH MAA"...AAR PARCHINA...


    :rockon:
     
    nik_bokacheley likes this.
  2. dhop

    dhop New Member

    wah wah fatiye chouchir kore diyecho. darun darun :rockon:
     
  3. sayanakaharry

    sayanakaharry Forum Leader

    nice chords, man. good work.
     
  4. sonti_in

    sonti_in New Member

    req: cactus chords

    hi billyboy,

    darun koreccho. bahudin dhore ami ei chord guli khunjchilam. kintu kicchu-tei ekta bhalo bangla gaan-er chord-er site maane jekhane bangla band-er gaan-er chords paoa jaaye se rakam pacchilam na. chaliye jao. accha oi gaan-ta-er chord ki ber koreccho "sa..sa..sa..sa..saridon...gelusil". gaan-er titlet-a ei muhurte mone porcche na.

    take care,
    sonti
     
  5. sayanakaharry

    sayanakaharry Forum Leader

    @sonti

    gaanta holo Tumio bojho amio bujhi
     
  6. nik_bokacheley

    nik_bokacheley :help: I'm a mad :sadbye:

    :RollLol:...@sayan da..
    Good work BILLY....:eek::..Long list of songs..;)..reps 2 you...:)
     
  7. LEFTY_GUITARIST

    LEFTY_GUITARIST -= M®. §öU†|-|ÞäW =-

    i gotta adimit dis..................dissss isss 1 of da best threads in igt (atleast to me)
     
  8. LEFTY_GUITARIST

    LEFTY_GUITARIST -= M®. §öU†|-|ÞäW =-


    DURR BOKA.....................

    GAN TAR NAMM hOLO -------TUMIO BOJHO AMIO BUJHI
     
  9. F#m

    F#m New Member

    foul gaan, foul band, ki mia polapainer moton cactus cactus lagay rakhsen!! ajib!! bd tey ar band nai naki??
     
  10. nik_bokacheley

    nik_bokacheley :help: I'm a mad :sadbye:

    ki bollchis..?...Bujhlam..NA...:shock:
     
  11. nik_bokacheley

    nik_bokacheley :help: I'm a mad :sadbye:

    ki bollchis..?...Bujhlam..NA...:shock:
     
  12. 7miles

    7miles ____7miles to success____

    i think tht this chords will b useful 4 mah
     
  13. 7miles

    7miles ____7miles to success____

    aare bokacheley tui eekhane
     
  14. 7miles

    7miles ____7miles to success____

    oh by da by !!!!! billy gr8 job keep going !!!!
     
  15. nik_bokacheley

    nik_bokacheley :help: I'm a mad :sadbye:

    @7miles...amake NIK boley daak......@ga*du....7..miles..!!
     
  16. chandan_gaan

    chandan_gaan New Member

    Holud pakhi_Chords_Cactus_Pota

    i guess holud pakhi chords would be like this

    D...............F#m...........G..............D.......A
    sei je holud pakhi bose jamrul gacher dale
    D.............F#m............G.........D.......A
    korto dakadaki amar soisober sokale

    D.............F#m............G..............D.......A
    sei je holud pakhi bose jamrul gacher dale
    D............F#m.........G....
    korto dakadaki amar soisober sokale
    ........A.............G.............A
    ekdin se gelo ure janina kon sudure
    D...............G...
    firbena seki firbena
    A...............D
    firbena aar konodin

    D...............G...
    firbena seki firbena
    A...............D
    firbena aar konodin

    (rest of the song goes on the same chord progression)


    For more bengali song chords visit http://uniquechords.blogspot.com
    i am sure it would be of use.
     
  17. chandan_gaan

    chandan_gaan New Member

    new new bengali song chords will keep coming in nowhere but on http://uniquechords.blogspot.com
    do not miss out the opportunity to get the accurate chords for the songs u want.
     

Share This Page