Chords and tabs of BHOOMI

Discussion in 'Bengali Guitar Tabs - Submit or Request' started by billyboy, Dec 11, 2004.

  1. billyboy

    billyboy New Member

    MONE AAR NAI RE


    I N T R O

    e--------------------------7/10-9------------------------------
    b--7-8-7---7-8-10---7--------------12/14-12----------------------
    g--------9--------9--------------------------11-9-11/12-11-9-11--
    d-------------------------------------------------------------
    a-----------------------------------------------------------
    E----------------------------------------------------------


    e---------------------7--5-7-5-----------------------------
    b------7-8h9-8h9-8----8--------------10-8-7---7h8p7----
    g--7h9-------------------------------------9----------
    d-----------------------------------------------------
    a-----------------------------------------------------
    E-----------------------------------------------------

    e-------------------------
    b-------------------------
    g-----7p6-----------------
    d---7-----9-7-7-----------
    a-------------------------
    E-------------------------

    Part-1

    D----------------
    mone aar nai re
    ----------------
    mone nahi nai aar
    -------------G----A
    naia jai nao reee he
    -------D----
    vatiali gaia[2]


    Part-2

    ---------------D-----
    Baitam jouban loia re
    -------------Bm--
    gaitam chore bohia
    ------------G----------A---
    bhaisa aito koto soooooooor
    -------------D
    sookh dookh loia[2]

    Part-1|

    Riff

    e--------------------------------7-9-10-9-7-7h9-7-------------
    b--7-8-7---7-8-10-7h8p7-5-------7-----------------7-7---------
    g--------9----------------7----------------------------
    d-------------------------------------------------------------
    a-----------------------------------------------------------
    E----------------------------------------------------------


    e------------------------------------7--------------
    b---------------------7h8p7----7h8h10--8h10-8---------
    g--6h7p6---6h7----7-9-------9--------------------------------
    d--------9---------------------------------------------
    a-----------------------------------------------------
    E-----------------------------------------------------

    e--10-10h12p10-10--9h10p9/7-7h9p7/5---3h5p3/2---2-3-2------0-0----
    b--------------------------------------------3-5----------3-2-3-
    g---------------------------------------------------
    d----------------------------------------------------
    a-------------------------------------------------------
    E-------------------------------------------------


    Flute riff|

    Kaita gelo bohukal
    bahubol loia
    dnar aar mane na
    puran haat soia[chords of part2]

    Part-1[2]

    D
    heiya heiya heiya
     
    himika9 likes this.
  2. dhop

    dhop New Member

    hmmmmmmmm ekebare fatiye diyecho guru "billiboy" tab ta tullam darun mileche. :rockon:
     
  3. billyboy

    billyboy New Member

    DIL DORIYA(JATRA SHURU)
    ------------------------

    G
    Dil doriya re tore kiser kotha koi

    ore majhire majhire kotha bhasli

    dor khuliyare ami ashay ashay roi

    ore majhire majhire kotha bhasli
    ------F-----------------------C----------G--
    ashar srabon elo majhi tor oi udas uthan buke[2]
    ------F----------C---------------------Bb--
    ami snajher bela goyal dhare thay bose roi
    ---------G--
    hay bose roi

    Em----------------------------------D---
    Son doriyare amay de firaye de amar majhi
    ---------C----
    oye amar majhi[2]
    Em-----------------------D-------------------
    Boikal bela ghater dhare jai chutiya bare bare
    c------------------------Bm--------
    sobar majhi ghore phere amar majhi nai
    c---------D--------D-----C---G--------
    amr majhi nai aaaaaaaaaaaaaahoooooooo






    RANGILARE(JATRA SHURU)
    ---------------------
    Am------------------
    dadre tor payer niche
    Am------------------
    poka makhor jay pishe
    Em--------------------D------------Em--
    tui bolish bhable eto bneche thaka day[2]
    ----------Em
    ore rangilare
    ----F-----------------------Em---
    tor rongo dekhi ami du chok bhore
    Am------------------------
    ami raat jege raat jege roi
    ------------------
    ami nijer moto roi
    Am------------C----------Em------------
    raat furilei diner alor bishe matal hoi[2]











    sONALI CHANDER ALO(UDAAN)
    -------------------------
    Bm---------A---------------------Em--------------------Bm
    makhdoriyay nao khan daray bondhu piritir e kul o kul nai[2]
    ------Bm---------G-----------Bm---------G
    amar dare moyna pakhi amar naoe kodom ful[2]
    ------Bm--------A------
    ami kemne ebar firi ghore
    Em------------------------
    sonali sonali sonali sonali
    ------------Bm-
    kemne firi kul







    CHAL SAKHI(UDAAN)
    -----------------
    F#m------------------------------------------
    doyel dole patar fnake siuli gache kokil dake
    A----------------------F#m----------------
    tobu kene raag dekhali dibo ami golay fasi
    A----------------------F#m----------------
    chol sokhi mon manate toi toi kore ghure asi

    E---------------------A-------------------
    Akas jage batas jage nache dale chorai go
    F#m----------------
    nache bone chrorai
    E---------------------A-------------------
    omon choke chand o jole emni kori borai go
    F#m-------------A--
    emni kori borai go







    MAA(UDAAN)
    ----------

    ----E----------------------------
    aaj dip jaliye sondhhe dis ne maa
    ----------------------D---
    pore roi basar konay re
    E-------------------
    moner payra dana mele
    D------------A------
    moner payra dana mele
    E---------------------A-----E
    Bhule jai becha kena reeeeeeeee[2]

    ----E---------D----------------E---
    aaj dip jaliye sondhhe dis ne maa

    -----E------------------------Abm
    aar dhup jaliye sindhe dis ne maa
    D--------------------E-
    kere tor nebo achol re
    E--------------------
    mone pore sishu khela
    E---------------------A-----E
    mone pore chera katha reeeeeeee

    ----E---------D----------------E---
    aaj snakh bajiye sondhhe dis ne maa






    Chokar DESHE(JATRA SHURU)
    -------------------------
    c-----------G----------C------------G
    majhi amare loia chol nijhum raate loia chol
    F------------------------C--------G--------C---
    sitol mase chokhar deshe door bohudoor bohudoor



    :rockon:
     
    debankan likes this.
  4. dhop

    dhop New Member

    bah eksathe eto...... :shock: ........ chords :p: bodhojom hoye gele mushkil :p: n e way gr8 works "billiboy" :rockon:
     
  5. Subhro

    Subhro Argentina lost :"(

    bibhosto

    :nw: billiboy :nw:

    bibhosto :beer: :rockon:
     
  6. billyboy

    billyboy New Member

    Thanks...Thanks guys.... :p:
    mm...er....ei aar ki bolbo.... :rock:
     
  7. sayanakaharry

    sayanakaharry Forum Leader

    nice job billyboy but please complete "sonali chander alo" ASAP. thats one song id love to play.
     
  8. billyboy

    billyboy New Member

    ok sayanakaharry...
    no problem.
     
    paranoid13rohan likes this.
  9. rix

    rix New Member

    :nw: .....bivotso.... :nw:
    ekebare fatafati.....duronto.... :beer:
     
  10. taquila

    taquila New Member

    Khub sundor hoyeche billyboy.. I must add it to your reputation!
     
  11. Sanjay Mazumder

    Sanjay Mazumder ~..::MASTERMIND::..~

    Besh bhalo laglo.........
    Kande sudhu mon keno kande re ---- taao ki post korbe plzzzzzz?
     
  12. Nironkush

    Nironkush New Member

    'Dushto hawa' is missing !!!! any one pls submit that also.. thats one of the best!!
     
  13. paranoid13rohan

    paranoid13rohan .: iNDiaN iDioT 3.0 :.

    @billyboy ... its nice ... dam gud ... all of them r workin cool ... reps 4 u ... keep up the gud job ...
     
  14. debankan

    debankan The bassist from hell

    Osadharon Billy boy. Keep it up. Reps dichchhi.
     
  15. paranoid13rohan

    paranoid13rohan .: iNDiaN iDioT 3.0 :.

    Missing Link !!!

    billyboy jehetu ekhono reply koreni, aami ekta try marchhi ...

    je part-ta billyboy deyni ... sheta holo eta -

    Bm
    Maach doriyay
    D
    Nile nil aakash bohukal
    A Bm
    Ore mon orali haowae

    A
    Jowar-e bhashai re bondhu shorir mon shopon re
    Em Bm
    Apon aamar kache aamare chhuye



    bakita to eki rokom ...


    tumi etai chaichhileto ... naki puro lyrics likhe, chord boshiye debo?
     
  16. rockbabun

    rockbabun New Member

    @rohan and billy

    Bhole baba-r chord chai
     
  17. paranoid13rohan

    paranoid13rohan .: iNDiaN iDioT 3.0 :.

    Requests in new threads please !!!
     
  18. sayanakaharry

    sayanakaharry Forum Leader

    @paranoid

    tried it. sounds good, thanks man! i owe u one.
     
  19. paranoid13rohan

    paranoid13rohan .: iNDiaN iDioT 3.0 :.

    @babun ...
    D A G D - the whole song is on this progression ... no need 4 a new thread ...

    @sayan ... thanx ... u owe me what? - points or reps?
     
  20. Papul

    Papul New Member

    can you pls post the tabs of dil doriya
     

Share This Page