Chanda Ki Doli complete song tabz.....plz plz plz comment

Discussion in 'Hindi Guitar Tabs - Submit or Request' started by larsan, Jun 29, 2005.

  1. larsan

    larsan K-Dash

    e----9-7-6-4------9-7-6-4
    B-7-9---------7-9--------
    G-------------------------
    D-------------------------
    A-------------------------
    E-------------------------
    chanda ki doli mein, pariyon ki jholi mein
    e-------------------------
    B-55-4-5-7-5-4-6----------
    G-------------------------
    D-------------------------
    A-------------------------
    E-------------------------
    shehzadi aayi meri

    e----9-7-6-4------9-7-6-4
    B-7-9---------7-9--------
    G------------------------
    D-------------------------
    A-------------------------
    E-------------------------
    chanda ki doli mein, pariyon ki jholi mein
    e-------------------------
    B-5-99--11-12-9-10-11-11-11
    G-------------------------
    D-------------------------
    A-------------------------
    E-------------------------
    khushiyan woh layi meri

    e----------------------
    B-7-5-44444-2-44-5-7-5-2
    G-------------------------
    D-------------------------
    A-------------------------
    E-------------------------
    palkon ke dar se woh aankhon ke ghar mein rahe
    khwaabo ko sach hone de

    e------------------
    B-2-5-7-9-12-9-10-11
    G-------------------------
    D-------------------------
    A-------------------------
    E-------------------------
    khwaabo ko sach hone de
    e--------------------------
    B-7-5-44444-2-44-5-7-5-2---
    G-------------------------
    D-------------------------
    A-------------------------
    E-------------------------
    palkon ke dar se woh aankhon ke ghar mein rahe
    khwaabo ko sach hone de

    e-------------------
    B-2-5-7-9-12-9-10-11
    G-------------------------
    D-------------------------
    A-------------------------
    E-------------------------
    khwaabo ko sach hone de

    e-7-9-11-9-7--7-9-12-11-9-7-4
    B----------------------------5-99-11-12-9-10-9-7
    G-------------------------
    D-------------------------
    A-------------------------
    E-------------------------
    har ek dua mein usko hi maanga sada
    woh bhi mujhe maang le

    e----9-7-6-4------9-7-6-4
    B-7-9---------7-9--------
    G-------------------------
    D-------------------------
    A-------------------------
    E-------------------------
    chanda ki doli mein, pariyon ki jholi mein

    e-----------------------
    B-55-4-5-7-5-4-6---------
    G-------------------------
    D-------------------------
    A-------------------------
    E-------------------------
    shehzadi aayi meri oo oo oo o


    e-----9-9-7-9-11-9-7-77-6-77-4-2
    B-7-9---------------------------
    G-------------------------------
    D-------------------------------
    A-------------------------------
    E-------------------------------
    aane se uske yaha mehka hain sara sama
    e-----9-9-7-9-11-9-7-77-6-77-4-2
    B-7-9--------------------------
    G------------------------------
    D------------------------------
    A------------------------------
    E------------------------------
    usko toh sajda kare ab yeh zameen asmaan
    e-----------------------------------------
    B-2-5-7-9-77--2-5-7-9-77---5-7-9-12-11-9-7
    G----------------------------------------
    D----------------------------------------
    A-----------------------------------------
    E------------------------------------------
    mujhe hain yakeen itna hasin maine kahin dekha nahi

    e-7-9-11-9-7--7-9-12-11-9-7-4
    B--------------------------------5-99-11-12-9-10-9-7
    G---------------------------------------------------
    D---------------------------------------------------
    A---------------------------------------------------
    E---------------------------------------------------
    sun le jar tu yeh iltejaah hain khuda
    woh kaash mujhko miley...


    e----9-7-6-4------9-7-6-4
    B-7-9---------7-9--------
    G-------------------------
    D-------------------------
    A-------------------------
    E-------------------------
    chanda ki doli mein, pariyon ki jholi mein
    e-----------------------
    B-55-4-5-7-5-4-6---------
    G-------------------------
    D-------------------------
    A-------------------------
    E-------------------------
    shehzadi aayi meri oo oo oo o

    e-7-9-6-------------------
    G-------------------------
    D-------------------------
    A-------------------------
    E-------------------------
    khwaabo.....

    e-7-9-6-7-9-6-7-12-11-9-7-4
    G-------------------------
    D-------------------------
    A-------------------------
    E-------------------------
    khwaabo ka aao ek ghar banaye

    e-7-9-6-7-9-6-7-12-11-9-7-4
    G-------------------------
    D-------------------------
    A-------------------------
    E-------------------------
    harsu jaha hum mohabbat sajaye

    e-----------------------------------------
    B-2-5-7-9-77--2-5-7-9-77---5-7-9-12-11-9-7
    G-----------------------------------------
    D-----------------------------------------
    A-----------------------------------------
    E-----------------------------------------

    subah shaam ho jaa dilkaashi,raat miley shabnami


    e-7-9-11-9-7--7-9-12-11-9-7-4----------------------
    B--------------------------------5-99-11-12-9-10-9-7
    G---------------------------------------------------
    D---------------------------------------------------
    A---------------------------------------------------
    E----------------------------------------------------
    ek chand jaise taaron ke dil mein pane
    yeh pyar aaise khile


    e----9-7-6-4------9-7-6-4
    B-7-9---------7-9--------
    G-------------------------
    D-------------------------
    A-------------------------
    E-------------------------
    chanda ki doli mein, pariyon ki jholi mein

    e------------------------
    B-55-4-5-7-5-4-6-7-------
    G-------------------------
    D-------------------------
    A-------------------------
    E-------------------------
    shehzadi aayi meri Disha oo oo oo o


    Hi Igtians..............this song was really hard to tab......but still i have done it finally...i x-pect a gud response from all of ya.....plz plz comment......soon will be tabbing more songz......plzzzzzzzzzzzzz comment...:) :rock: :beer:
     
  2. softy

    softy New Member

    help

    hi
    i am a new student can u tell me how to read tabs
    can u explain me in detail
    also do u have tabs for song chura liya hai tum ne jo dil ko
    and ajeeb dastan hai yeh
    and i need chords also for both these songs
    i am learning chords right now but my sir doesnt play any hindi songs and nor does he plays tabs
    so i dont know how to read these notes
    thanks a lot
    sonal
     
  3. Sirius

    Sirius New Member

    way to go !!!!!! Great work
     
  4. acebuddy129

    acebuddy129 S¡nE® Sá¡nT

    Hi softy...before posting your doubts please serach the forums first. How to read tabs is a sticky in every thread.
    Neways am provding u the link here:http://www.indianguitartabs.com/showthread.php?t=151

    And as for ur requests please create a new thread in the correct forum.Am sure that way many ppl wil notice ur request n post a reply.

    Hope this helped u dude.
     
  5. larsan

    larsan K-Dash

    Thx sirius 4 appericiating......comon Igtians comment plz.....well softy......i will be soon giving u some hint....a bit buzy to write down a note regarding tabzz....but soon will be posting to u....hope the link acebuddy 129 works 4 u....:)
     
  6. jhinga_lala

    jhinga_lala New Member

    what about chords?
     
  7. abhimanjrekar

    abhimanjrekar ----> Zhol-Man<----

    hey

    Chura Liya Hai Tumne

    --------------------------------------------------------------------------------

    Am.....................G
    chura.liya.hai.tum.ne.jo.dil.ko

    Am..................E.
    nazar.nahin.churana.sanam

    Am....................G...
    badal.ke.meri.tum.zindagani.

    Am
    kahin.badal.na.jana.sanam

    Dm.......G...Dm.......G.
    le.liya.dil.hai.mera.dil

    ...........A
    hai.dil.le.ke.mujh.ko.na.behlana

    Am
    chura.liya

    Am.............Dm..........C
    bahar.ban.ke.aaun..kabhi.tumhari.duniya.mein

    Am..............Dm.......................Am
    kahin.gujar.na.jayen.yeh.din.isi.tamanna.mein

    Le.liya.dil.hai.mera.dil..........(same.as.above
     
  8. abhimanjrekar

    abhimanjrekar ----> Zhol-Man<----

    hi.the chords tht u wanted
     
  9. astroguru26

    astroguru26 New Member

    larsan...apprecitaing you for the lovely presentation of tab of chanda ki doli..good work..take care
     
  10. shadowcaster

    shadowcaster Darkness Everywhere

    Hey Iarsan. Your 'Chanda ki' Tabs were gerat. I realy liked its first part 'chanda ki dooli main'. Good going.
     
  11. GuItAr_GOD

    GuItAr_GOD New Member

    tabs dont sound correct...................work on them
     
  12. karamveer

    karamveer New Member

    --------------------------------------------------------------------------------------------------------
    CHORDS FOR CHURA LIYA

    AmG
    chura liya hai tum ne jo dil ko

    Am E
    nazar nahin churana sanam

    Am G
    badal ke meri tum zindagani

    Am
    kahin badal na jana sanam


    Am Dm Am G
    le liya dil hai mera dil

    A
    hai dil le ke mujh ko na behlana

    Am
    chura liya

    Am Dm C
    bahar ban ke aaun kabhi tumhari duniya mein

    Am Dm Am
    kahin gujar na jayen yeh din isi tamanna mein

    Le liya dil hai mera dil
    Same chords here.
    --------------------------------------------------------------------------------------------------------
    CHORDS FOR AJIIB DAASTAAN

    A
    ajiib daastaan hai ye
    E
    ye manzilen hai kaun sii
    D
    na vo samajh sake na ham
    A
    ajiib daastaan...

    A D
    mubaaraken tumhen ke tum
    A
    kisiike nuur ho gae
    D
    kisiike itane paas ho
    A
    ke sabase duur ho gae
    A
    ajiib daastaan...
    --------------------------------------------------------------------------------------------------------
     
  13. prashu83

    prashu83 New Member

    good one lars!!
     
  14. sourabhu21

    sourabhu21 New Member

    the chords are grt...masterpiece of genius,,i shud say,,,u play professionally as well???
     

Share This Page