Call of Ktulu

Discussion in 'English Guitar Tabs - Submit or Request' started by born2tab, Feb 28, 2007.

  1. born2tab

    born2tab rhythm guitarist

    Was goin over my old mp3 and heard the call of Ktulu by metallica.

    I tried recording my version of the intro and hence posting the intro tabs.
    Code:
    The Call of Ktulu:
    
    
    
    e---5---------5--- ---6---------6--- ---8----------8--- ---5---------5---
    B-------6---5---6- -------6-------6- -------8--------8- -------6-------6-
    G-----7----------- -----7-----9----- -----9------9----- -----7-----7-----
    D-0-------7------- -0-------8------- -0-------10------- -0-------7-------
    A----------------- ----------------- ------------------ -----------------
    E----------------- ----------------- ------------------ -----------------
    intro play each part 2 times
    
    
    e---------0---------------0-------
    B-------0---0-----------0---0-----
    G-----5------5--------5-------5---
    D---7---------------7-----------7-
    A-0------------7--6---------------
    E---------------------------------
    
    
    e-------1-|-------1-|-------1-|-------5-
    B-----3---|-----3---|-----3---|-----3---
    G---2-----|---3-----|---4-----|---5-----
    D-0-------|-0-------|-0-------|-0-------
    A---------|---------|---------|---------
    E---------|---------|---------|---------
    These are played both clean and then later with distortion
    
    Here z the link to ma recording...small but crystal clear.
    only cud manage the intro.:eek::
    http://www.fupload.com/confirm_email.php?file_id=d6ybtnxfhw59c4kjgzpm&confirm_string=gxv95k

    Do comment
     
    .:SpY_GaMe:. and anshphenomenon like this.
  2. nazr

    nazr angel is my genital..

    Very neat born. Good recording.
     
  3. born2tab

    born2tab rhythm guitarist

    thanks for the appreciation nazr
     
  4. anshphenomenon

    anshphenomenon Rape me :boff:

    nice work!
     
  5. born2tab

    born2tab rhythm guitarist

    thanks ansh.
    was really waiting as to how wud u react:)
     
  6. born2tab

    born2tab rhythm guitarist

    hey thanks again for the reps:cheers:
     
  7. DagMX

    DagMX New Member

    very good...but maybe try using the neck pickup instead of the bridge or use both?(maybe thats just me though)
     
  8. born2tab

    born2tab rhythm guitarist

    Thanks Dag.Will try it out ya way
     
  9. .:SpY_GaMe:.

    .:SpY_GaMe:. New Member

    heyhey liked it
    n thats Metallica :grin:

    will try that on my electric saturday after i fix a prob with my E string( the E1 doesnt sound clear at all)
     
  10. born2tab

    born2tab rhythm guitarist

    ^^^Thanks bro
     
    god_of_guitar likes this.
  11. god_of_guitar

    god_of_guitar New Member

    ur awsome man!!! reps for you
     
  12. born2tab

    born2tab rhythm guitarist


    Thanks buddy:beer:
     
  13. Silverpeace

    Silverpeace New Member

    Great work. Very good.
     
  14. born2tab

    born2tab rhythm guitarist

    Thanx SilverPeace
     

Share This Page