BGM -From Tamil Songs

Discussion in 'Tamil Guitar Tabs - Submit or Request' started by jpreethidevotta, Aug 11, 2010.

  1. jpreethidevotta

    jpreethidevotta New Member

    Hey All...

    There are many BGM which would have touched your heart....
    may be you wud have found notes for it(If so post here).......or may not...request all the Guitarist here to take initiative to find the notes to help others atleast a begineer like me.You can post in below format.

    Movie Name : Pudhupetti
    Song : Oru Nallil Valkai
    Minutes (BGM) : 1:20

    Im tryin for it...some how am ending up with the wrong tune..
    Experts Please help!!!!!!
     
  2. roentgen

    roentgen Member

    I suppose you mean the 1st interlude.
    The term BGM should be used for background score in the movie.

    Anyway it goes like this:
    Code:
    (/) Slide Up  (\) Slide Down  
    
    E|--------|--------------------|----------------------|-------------------|-------
    B|--------|--------------------|--------2--2----------|-------------------|-------
    G|--------|--------------------|----------------------|-------------------|-------
    D|--1--3--|--4--4--3--4--4--3--|--1--1----------1--3--|--4--4--3--4--6/8--|--8\6--
    A|--------|--------------------|----------------------|-------------------|-------
    E|--------|--------------------|----------------------|-------------------|-------
    
    
    
    E|--------|---------------------|--------------------|-----------------|-----
    B|--------|---------------------|--------2--2--------|-----------------|--2--
    G|--------|---------------------|--------------4--3--|--4--3--4--------|-----
    D|--1--3--|--4--4--4\3--4--4\3--|--1--1--------------|-----------1--1--|-----
    A|--------|---------------------|--------------------|-----------------|-----
    E|--------|---------------------|--------------------|-----------------|--
    Rajesh
     
  3. suresh3v

    suresh3v New Member

    The folllowing link has many Tamil song notes:
    learnhere.hpage.com
     
  4. jpreethidevotta

    jpreethidevotta New Member

    Thought none will reply for thiss.....
    Thank you soooo much guysssss... :)
     

Share This Page