Bachana by bilal khan

Discussion in 'Hindi Guitar Tabs - Submit or Request' started by tabish.falcon, Oct 31, 2010.

  1. tabish.falcon

    tabish.falcon New Member

    hello frends :D can u please give me the tabs of the song Bachana by bilal khaan ??
    p.s =tabs. not the chords !

    thanx in advance :D !
     
  2. adeem.syed

    adeem.syed New Member

    ??????????????????????
     
  3. Apurv k Agrawal

    Apurv k Agrawal New Member

    VIdeo cover by me

    Hey buddy check this out
    http://www.youtube.com/watch?v=xx-F-UMwqho
    MY own cover!! comment if u like it.
    Bachana by bilal khan
     
  4. samymarboy

    samymarboy New Member

    here is tabs

    Bachana Song By Bilal Khan - Tabs of The Song ....


    Tanhai k Safar mein
    e|-------------------------------------|
    B|---------------2-3-5-5-3-2------|
    G|-------4-2-4-------------| <---- Begin the Tabs from G string


    Chalna Sabar se
    e|---------------------------------------------------|
    B|------------------------2-3-5-5-3-2------|
    G|---------------------4----------------------------| Start From G

    Koi na Nazar mein haan
    e|---------------------------------------------------|
    B|------------------------2-3-5-5-3-2------|
    G|---------------------4----------------------------| Start From G

    Jab Khaaab mein Soo jaein
    e|---------------------------------------------------|
    B|------------------------2-3-5-5-3-2------|
    G|-----------------4-2-4----------------------------| Start From G

    Sochon Ko Neebha na Paein
    e|----------------------------------2-------------|
    B|------------------------2-3-5-5----5-5-3-2---|
    G|---------------------4------------------------------| Start from G


    Din Woh yaad aein na...
    e|---------------------------------------------------|
    B|------------------------2---3---5--5--3--2------|
    G|---------------------4----------------------------| Start From G

    Khata ho gaey! Saza ho gai .......
    Repeat it 2 times. ....
    e|----------------2-2-----2-----------------!
    B|---------------------5--------------------!
    G|------------3--------------------------!Start from G

    Purane Din yaad aein na ...
    e|-------------------------2-----------------|
    B|---------------2-3-5-5----3-2----2---|
    G|-----5--5----------------------4--------| Start from G

    Dunya k is Shoor mein Seekha hai Mar k Hoti Zindagi kia ...
    e|--------------------------------------------2-----------------------------|
    B|--2--3--5-3--2--2---5--3---2---2---5--3----2--------2---|
    G|--4---2---4-----------------------4------4-----------------4--------------------------4-------|


    Mein Doob Rha...Doob Rha....


    2 Times ....
    e|------------2---------2-------------------------|
    B|---------------3-5-------3-5------------------|
    G|-------4--------------------------------------------|


    BACHANA MUJHE BACHANA.....


    e|--------------------------------------------------|
    B|----------------------3---2---------------------|
    G|-----4--2--4--4--4---------2---4---------------|


    The Same Pattern Goes for rest of the song! .....Enjoy! :)
     

Share This Page