Are ruuk ja re bande-Indian Ocean

Discussion in 'Hindi Guitar Tabs - Submit or Request' started by billyboy, Mar 7, 2005.

  1. billyboy

    billyboy New Member

    This is a great song by INDIAN OCEAN

    the intro chords are

    Cm--Ab--Bb---Cm


    INTRO
    -----

    ------------------------------------------
    ------4-3-4---------4-3-4----------------------
    ----5-------5-----5-------5---------------
    --------------------------------
    --3-------------3-----------------------------
    ------------------------------------------


    ----------------------------------------
    ------4-3-4-----------4-3-4---------------
    ----5---------------5------------------
    --6---------6-----6---------6------------
    --------------------------------------
    -----------------------------------


    --------------------------------
    -------4-3-4--------4-3-4-----------
    -----3-------3----3-------3---
    ---3------------3---------------------
    ------------------------------------
    ------------------------------


    Cm

    --------Cm
    Are ruk ja re bande
    ---------Ab
    are tham ja re bande
    ----------Bb
    ke kudrat has paregi
    Cm
    hoooo


    :rockon:
     
  2. jim4u18

    jim4u18 New Member

    k plz can u tell me wat r Ab n Bb chords coz till now i have searchin for those chords positions plz send me the positions
     
  3. smriti

    smriti // Silent Observer //

    hey jim4u18 these r the chords positions:


    Ab
    |---|---|---|-1-|---|---|---|---|---|---|---
    |---|---|---|-1-|---|---|---|---|---|---|---
    |---|---|---|---|-2-|---|---|---|---|---|---
    |---|---|---|---|---|-4-|---|---|---|---|---
    |---|---|---|---|---|-3-|---|---|---|---|---
    |---|---|---|---|---|---|---|---|---|---|---

    Bb
    |---|---|---|---|---|-1-|---|---|---|---|---
    |---|---|---|---|---|-1-|---|---|---|---|---
    |---|---|---|---|---|---|-2-|---|---|---|---
    |---|---|---|---|---|---|---|-3-|---|---|---
    |---|---|---|---|---|---|---|-4-|---|---|---
    |---|---|---|---|---|---|---|---|---|---|---
     
  4. jim4u18

    jim4u18 New Member

    thanx man i was searchin for these chords every where i found Ab n Bb i use to play Amaj n Bmaj
     

Share This Page