Anyone have chords/tabs for khudaya khair- billu barber?

Discussion in 'Hindi Guitar Tabs - Submit or Request' started by aishu*7, Feb 4, 2009.

  1. aishu*7

    aishu*7 New Member

    I really want to learn the song especially the hindi version. The tune at the start of the song is really good in my opinion and I wanted to have a go at it.
    I am a beginner so if you could post really simple and easy to play ones that would be helpful.
    Here is a link to the whole song:
    http://youtube.com/watch?v=i05N-weYQV8
    Aishu
     
  2. numbfingers

    numbfingers New Member

    Khudaya Khair(Billu Barber)....Chords

    Here is what I could tab....hope u like them

    Scale G
    (use Em on 3rd fret)

    G.....................
    Raaton raat tara koi
    Bm...................
    Chand ya sitara koi
    Em.................
    Gire toh utha lena
    D.....
    O suniyon re
    G.................
    Tara chamkila hoga
    Bm.................
    Chand Sharmila hoga
    Em..................
    Nath mein laga lena x 2

    C......................
    Zara si saawari hai woh
    Am......................
    Zara si baawari hai woh
    C......................
    Woh surme ki tarah meri
    Em................D........
    Aankhon mein hi rehti hai


    C.................G........
    Subah ke khawab se udai hai
    D.................G........
    Palkon ke neeche chupai hai
    Bm..............
    Mano na mano tum
    C............................D............G.....
    Sothe sothe khawabon mein bhi khawab dikhati hai
    Bm...............
    Mano na mano tum
    C....................D..............G...
    Pari hai woh pari ki kahaniyan sunati hai

    D.....G.....
    Khudaya khair
    Khudaya khair
    Khudaya khair
    Khudaya khair

    Raaton raat tara koi
    Chand ya sitara koi
    Gire toh utha lena
    O suniyon re
    Tara chamkila hoga
    Chand Sharmila hoga
    Nath mein laga lena

    Tu hawa main zameen
    Tu jahan mein wahin
    Jab ude mujhe le ke kyon udti nahi
    Tu ghata mein zameen
    Tu kahin mein kahin
    Kyon kabhi mujhe leke barasti nahi

    Zara sa saawara hai woh
    Zara sa baawara hai woh
    Woh surme ki tarah meri
    Aankhon mein hi rehta hai

    Subah ke khawab se udai hai
    Palkon ke neeche chupai hai
    Mano na mano tum
    Sothe sothe khawabon mein bhi khawab dikhati hai
    Mano na mano tum
    Pari hai woh pari ki kahaniyan sunati hai

    Khudaya khair
    Khudaya khair
    Khudaya khair
    Khudaya khair

    Jab daanth mein ungli dabaye
    Ya ungli pe lat liptaye
    Badal yeh nichadta jaye
    Hoo hoohhhhh

    Kuch kar ke woh baat ko taale
    Jab maathe pe woh bal dale
    Amber yeh sukadhta jaye
    Hooo hoooohh

    Woh jab nakoon kutarti hai
    To chanda ghatne lagta hai
    Woh pani par kadam rakhe
    Sagar bhi hat jata hai

    Subah ke khawab se udai hai
    Palkon ke neeche chupai hai
    Mano na mano tum
    Sothe sothe khawabon mein bhi khawab dikhati hai
    Mano na mano tum
    Pari hai woh pari ki kahaniyan sunati hai

    Khudaya khair
    Khudaya khair
    Khudaya khair
    Khudaya khair
     
  3. aishu*7

    aishu*7 New Member

    thanks

    ^^^^
    thanks so much for the speedy reply and they are good. If you can please give me more detailed ones, i would appreciate it.
    Thank You,
    Aishu
     
  4. numbfingers

    numbfingers New Member

    what do u mean by full version....this are the whole chords....they repeated throughout
     
  5. ani9sid

    ani9sid New Member

    ne 1 have the chord of psp 12
     
  6. alok111

    alok111 New Member

    any one have tabs of this song
     
  7. avi.singh

    avi.singh 6 strings lover

    tabs for this song.....

    ratoo raat tara koi

    |--5-7-7-5--5-7-7-5
    |------------------
    |------------------
    |------------------
    |------------------
    |------------------

    chand ...koi

    |--5-7-7-5--5-7-7-5
    |------------------
    |------------------
    |------------------
    |------------------
    |------------------

    mile to .....lena

    |-------5-5--4/5--5-5/---7\5-
    |--7/8----------------------
    |---------------------------
    |---------------------------

    o sunio re...

    e|----------5-5
    B|--8-7-8-8----
    G|-------------
    D|-------------


    Tara chamkila hoga

    |--5-7-7-5--5-7-7-5
    |------------------
    |------------------
    |------------------
    |------------------
    |------------------

    Chand Sharmila hoga

    |--5-7-7-5--5-7-7-5
    |------------------
    |------------------
    |------------------
    |------------------
    |------------------


    nath main..lena


    |-------5-5--4/5-5---8/10-10
    |--7/8----------------------
    |---------------------------
    |---------------------------



    Zara si sanwari...
    e|--------------------
    B|------5~5---------
    G|-----------7-5--5-5
    D|--5-5---------------
    A|--------------------
    E|--------------------



    Zara si Bawri ...
    e|--------------------
    B|------5~5---------
    G|-----------7-5--5-5
    D|--5-5---------------
    A|--------------------
    E|--------------------

    wo surmain..... meri

    e|--------------------
    B|------5~5---------
    G|-----------7-5--5-5
    D|--5-5---------------
    A|--------------------
    E|--------------------

    Aankhon main hi rahai hai..
    |--3-3----------
    |------3-5-3----
    |------------5-2
    |---------------
    |---------------
    |---------------


    subah k khwab se udai hai..

    |------------------------------
    |--2/3--3----------------------
    |---------4--4-2--2-2\4\5/4/0
    |------------------------------
    |------------------------------
    |------------------------------

    palko..hai

    |------------------------------
    |--2/3--3----------------------
    |---------4--4-2--2-2\4\5/4/0
    |------------------------------
    |------------------------------
    |------------------------------

    mano na mano tum
    |----------------
    |----------------
    |----2-2-2-4--4-2
    |--5-------------
    |----------------
    |----------------

    sote sote.... hai

    |----------------------------------------------
    |--5-5-3--5-5-3--5--5--3----------------------
    |-------------------------4-2--2/4--4/5-4/5--2
    |----------------------------------------------
    |----------------------------------------------
    |----------------------------------------------

    pari hai wi pari ki....

    |----------------------------------------------
    |--5-5--3,-5--5-3,5-5-3--3----------------------
    |--------------------------4-2-2h4-------------
    |---------------------------------5-------------
    |----------------------------------------------
    |----------------------------------------------


    khuday khaisssssssssr (for thrice)

    |--3-2-3--3-2-5--5-3
    |-------------------
    |-------------------
    |-------------------
    |-------------------
    |-------------------

    and 4th
    khudaya khair
    |--3-2-3--3--------
    |-------------------
    |-------------------
    |-------------------
    |-------------------
    |-------------------




    ratoo raat tara koi

    |--5-7-7-5--5-7-7-5
    |------------------
    |------------------
    |------------------
    |------------------
    |------------------

    chand ...koi

    |--5-7-7-5--5-7-7-5
    |------------------
    |------------------
    |------------------
    |------------------
    |------------------

    mile to .....lena

    |-------5-5--4/5--5-5/---7\5-
    |--7/8----------------------
    |---------------------------
    |---------------------------

    o sunio re...

    e|----------5-5
    B|--8-7-8-8----
    G|-------------
    D|-------------


    Tara chamkila hoga

    |--5-7-7-5--5-7-7-5
    |------------------
    |------------------
    |------------------
    |------------------
    |------------------

    Chand Sharmila hoga

    |--5-7-7-5--5-7-7-5
    |------------------
    |------------------
    |------------------
    |------------------
    |------------------


    nath main..lena


    |-------5-5--4/5-5---8/10-10
    |--7/8----------------------
    |---------------------------
    |---------------------------





    stanza..

    tu hawa...zamin
    |----------------
    |--5-5-3---------
    |----------2-2h4-
    |----------------
    |----------------
    |----------------


    tu...wahin..

    |----------------
    |--5-5-3---------
    |----------2-2-4-
    |----------------
    |----------------
    |----------------

    jab ....udati nahin


    |------------------------------
    |--5-5-3-----------------------
    |----------2-4-4---------2-2/4-
    |----------------5-5-2-5-------
    |------------------------------
    |------------------------------
     
  8. kenshee

    kenshee New Member

    hmmm this is vry close......i like it...
    good job alok1111
     
  9. kenshee

    kenshee New Member

    but what bout the starting tabs????
    which r at early ??????
     
  10. raffay

    raffay New Member

    how do you play this ?? CAN ANYONE HELP PLZ !!!
     
  11. kilala

    kilala New Member

    thanks sooooo much be trying to work this out 4 ages
     
  12. afreen

    afreen New Member

    hey anyone has intro tabs of dis song...
     
  13. Sunny Sharma

    Sunny Sharma New Member

    Intro Part of this song. Enjoy Picking..

    [Stanza:1]

    e|7------7--7--7----5------10-------10\12--10-------
    B|8------8--8--8----5------10-------10\12--10-------
    G|------------------------------------------------------------
    D|------------------------------------------------------------
    A|------------------------------------------------------------
    E|-------------------------------------------------------------


    e|-----------------------------------------------------------|
    B|7\8----8--8--8--8--7--7--×--------------------------|
    G|-------------0--0--0--------------5--5--×--5\9--7×-|
    D|------------------------5--5--×--------------------------|
    A|-------------------------------------3--3--×--3\7--5×|
    E|------------------------------------------------------------|

    [Stanza:2]

    e|7------7--7--7----5------10-------10\12--10-------
    B|8------8--8--8----5------10-------10\12--10--7---
    G|------------------------------------------------------------
    D|------------------------------------------------------------
    A|------------------------------------------------------------
    E|------------------------------------------------------------


    e|-------------------------|
    B|8----8--8-----8-----8|
    G|-------------------------|
    D|-------------------------|
    A|-------------------------|
    E|-------------------------|

    e|---------------------------------|
    G|--------0--0--0---------0----|
    D|-----2------------0------------|
    A|---3----------------------------|
    E|---------------------------------|
     

Share This Page