Amir Zaki - You need that fire

Discussion in 'Pakistani Guitar Tabs - Submit or Request' started by ijlal, Dec 22, 2004.

  1. ijlal

    ijlal The B chord

    hi all
    someone requested this wonderful song. i think "moadhia" did. so here are the
    tabs trascribed by me.

    e|------------------------------------------------------|
    B|------------------------------------------------------|
    G|--12-11~ ~ -9-11-12-11-9------------------------------|
    D|-------------------------9----------------------------|2 times
    A|----------------------------12-10---------------------|
    E|------------------------------------------------------|

    e|------------------------------------------------------|
    B|------------------------------------------------------|
    G|---------9-8~-8---8-11--------------------------------|
    D|----------------9-------------------------------------|
    A|---10-12----------------------------------------------|
    E|------------------------------------------------------|

    e|------------------------------------------------------|
    B|--------12--------------------------------------------|
    G|--12-11~ - 9--9-11-12-11-9----------------------------|
    D|---------------------------9--------------------------|
    A|-----------------------------12-10--------------------|
    E|------------------------------------------------------|

    e|------------------------------------------------------|
    B|------------------------------------------------------|
    G|---------9-8~-8---8-11----12--9-----------------------|
    D|----------------9-------------------------------------|
    A|---10-12----------------------------------------------|
    E|------------------------------------------------------|

    e|----------10--------------10s12-12--10----12s14-------|
    B|-------12----13-12-12-13------------------------------|
    G|--9-12------------------------------------------------|
    D|------------------------------------------------------|
    A|------------------------------------------------------|
    E|------------------------------------------------------|

    e|---14-12-11-12-----12h15-14-12-------15~--17~--15-14--|
    B|-------------------------------15-13------------------|
    G|------------------------------------------------------|


    e|-12-11-11-12-12s14--14s12-----------------------------|
    B|------------------------------------------------------|
    G|------------------------------------------------------|

    e|-12-15-14-12--------15~--17~--15-14-|
    B|-------------15-13------------------|
    G|------------------------------------|

    e|-12-11-11-12-12s14--14s12-----------------------------|
    B|------------------------------------------------------|
    G|------------------------------------------------------|

    regards.
     
  2. moadhia

    moadhia New Member

    amazing ma friendd... soundss gr8... but its not complete .. if u have tabbed out the other part plz post tat too .. butt thanks for this too :D good workk
     
  3. rizaaj

    rizaaj Forum Leader

    look nice ones pal... will try it out tonight
     
  4. infinite aaz

    infinite aaz Member

    great work man

    hi man u did a good job, but can u complete it if so do it
     
  5. ijlal

    ijlal The B chord

    the next part really kills me :D....great work done by amir zaki in that part.
    will try to tab it.
    regards.
     
  6. BIG_EVIL

    BIG_EVIL Guitaring Machine

    Wonderful!!!!!!!!!
     
  7. moadhia

    moadhia New Member

    @ijlal.. i knoww man its so impressivee... i bet must be very very hard to tab tat out.. but plzz give it a tryy ... its such a freakin amazing instrumental..
     
  8. nadish

    nadish Active Member

    gr8888888888888
     
  9. Lahori_rocker

    Lahori_rocker Guitar God left IGT

    mindblowing tabs keep on rockin
     
  10. DRBILLA

    DRBILLA New Member

    great work mannnnnnnn it roxxxxx
     
  11. nadish

    nadish Active Member

    Dr Billa!!! Did u really checked them?????? ;) Ne way I've tried them today they are 98% correct.....
     
  12. Double A

    Double A New Member

    You Need that Fire.. Full version.

    Hey ppl those who checked the prev ver plz check it out n tell what u think....

    Its complete with Solo part..!!
    Comment if u like.


    :beer:
     

    Attached Files:

Share This Page