agosh tabs by E.P.

Discussion in 'Pakistani Guitar Tabs - Submit or Request' started by sk8ter girl, Sep 2, 2005.

  1. sk8ter girl

    sk8ter girl New Member

    hey does anybody noe tabs for agosh and fitrat by E.P,agosh is a pretty emotional song,it'll be great if somebody just butt in this forum and help me out,i just can't get it right...........
     
  2. Orange Guitar

    Orange Guitar IGT's ALLROUNDER

    Ok here are the tabs:
    NOT TABBED BY ME

    ----------------------------------------

    Author/Artist: EP
    Title: Aghosh
    Transcribed by: Shani
    Email: shani21m@hotmail.com
    Date: 17-October-2003
    URL: http://www.pakmanzil.com/
    Comments : This tabs is totally my work all suggestions, corrections
    welcome at shani21m@hotmail.com

    Standard tuning

    Chords: Asus(002200), Csus(335533), Fsus(x33011), C5(3355xx)
    G(355433), A(002220), F(133211), E(022100)
    G5(355xxx), A5(577xxx), F5(133xxx), D5(5577xx)

    Intro
    Asus Csus
    e--------0---------0-----------------3-------3-----
    B-----------0---------0-------------3---3-------3---
    G----2---------2---------2--------5-------5-------5-
    D-2-----------------------------5-------------------
    A---------------------------------------------------
    E---------------------------------------------------
    Fsus Csus
    e-------------0---------------3---------------------
    B-----1---------1-----------3---3-------------------
    G---0---0---------0------5--------5-----------------
    D-3-------3-------------------------5---------------
    A--------------------------------------------2-0----
    E---------------------------------------0-3---------

    Asus Csus G
    Tootay huway un khwabon kay

    Fsus G Asus
    uss dahektay suraj tallay

    Asus Csus G
    Falak say ub tapkay na jo

    Fsus G Asus
    Umeed kay qatray thay woh


    Asus Csus Fsus G Asus Csus Fsus G
    Talakh ansu won kay sai laab sayyeeyey jo

    Asus Fsus G E
    ho na saki num toh

    Roti thee woh..

    Chorus:

    Csus Asus G F G
    Ye hay Zameen meri maan thee woh

    Csus Asus G F G
    Khuda ka wajood mabood thee woh

    Csus Asus Csus Fsus G
    sa ya thee roshni bhi thee woh

    Csus Asus G F G Csus Asus
    qadam tallay jannat meri aghosh thee woh oo oo


    Asus Csus G Fsus G Asus
    Jis aasray keh liye rooh tadapti thee jiss ki e

    Asus Csus G Fsus G Asus
    jis shama ko woh jala na saki ha ha woh andhera hon mein


    Asus Csus Fsus G Asus Csus Fsus G
    Yeh guna gar haath bheek ki chahahah mein jo

    Asus G E
    badhein dar badar uss kee soo

    Dar rahi the woh...

    Csus Asus G F G
    Ye hay Zameen meri maan thee woh

    Csus Asus G F G
    qadam tallay jannat meri aghosh thee woh


    Solo:

    C5 A5 G5
    ho Aankh say tapka jo ab yeh lahoo
    F5 G5 A5
    zakham bharney lagay

    C5 A5 G5
    sar ba sajood hoon us k hazoor

    D5 A5
    gunah dhulnay lagay

    A5 C5 G5
    darguzar uss maan nay kiya

    F5 G5 A5
    faslay simatne lagay

    A5 C5 G5
    wahdahoo us ki kokh say hoon

    G5 F5 G5 A5
    aik hee nabz aik wajood

    Riff

    Csus Asus G F G
    Ye hay Zameen meri maan hai Yeh

    Csus Asus G F G
    Khuda ka wajood mabood hai Yeh

    Csus Asus Csus Fsus G
    sa ya hai roshni bhi hai yeh

    A G A G A
    qadam tallay jannat meri aghosh hai yeh
     
  3. sk8ter girl

    sk8ter girl New Member

    thanx............can u write me the main riff too,as a matter of fact,where'd u get the tab?!
     
  4. Orange Guitar

    Orange Guitar IGT's ALLROUNDER

    i am not sure abt the riff....got them from net!!!! google it up :)
     
  5. Lahori_rocker

    Lahori_rocker Guitar God left IGT

    hey wat abt hamesha!!!!orange
     
  6. Orange Guitar

    Orange Guitar IGT's ALLROUNDER

    yar hamesha kee chords post ker deen theen....intro bhi chords per hai....poora song Em, G, D , C and Em ke progression main hai....solo abhi post ker don ga!
     
  7. sk8ter girl

    sk8ter girl New Member

    and what abou fitrat?its really what u call ''reall pakistani metal''song,plz post that too,i gotta do that in a school concert...........thanx for agosh
     
  8. nadish

    nadish Active Member

    Intro is not correct....
     
  9. Spellbinder

    Spellbinder Crescentarian

    I think it is correct and just rockin
    __________________________
    Its Magic!!!!!!!
     
  10. nadish

    nadish Active Member

    If ur intro is correct then wat does the following intro suppose to be call??? Super Correct???

    (002200)(032033)(003210)(032010)

    e-------------0-----------------3----------0----------------------------|
    b------0-------0-------3---------3-----1-----1---------1----------------|
    g--------2------2--------0--------0---2-2------2-----0---0--------------|
    d----2-----2---------2-----2---------3---3----------2------2------------|
    a--0----------------3------------------------------3--------------------|
    E-----------------------------------------------------------------------|
     

Share This Page